  0
SECTION
  2
HEADER
  9
$ACADVER
  1
AC1027
  9
$ACADMAINTVER
 70
    55
  9
$DWGCODEPAGE
  3
ANSI_1252
  9
$AUTHOR
  1
WAEngineering1
  9
$LASTSAVEDBY
  1
WAMarketing2
  9
$REQUIREDVERSIONS
160
                 0
  9
$INSBASE
 10
0.0
 20
0.0
 30
0.0
  9
$EXTMIN
 10
661.049
 20
-1618.846
 30
0.0
  9
$EXTMAX
 10
5120.429
 20
1541.155
 30
0.0
  9
$LIMMIN
 10
-8040.258448
 20
-10969.842948
  9
$LIMMAX
 10
13821.736448
 20
10892.151948
  9
$ORTHOMODE
 70
     0
  9
$REGENMODE
 70
     1
  9
$FILLMODE
 70
     1
  9
$QTEXTMODE
 70
     0
  9
$MIRRTEXT
 70
     0
  9
$LTSCALE
 40
1.0
  9
$ATTMODE
 70
     1
  9
$TEXTSIZE
 40
100.0
  9
$TRACEWID
 40
0.05
  9
$TEXTSTYLE
  7
Standard
  9
$CLAYER
  8
Level 8
  9
$CELTYPE
  6
Continuous
  9
$CECOLOR
 62
    98
  9
$CELTSCALE
 40
1.0
  9
$DISPSILH
 70
     0
  9
$DIMSCALE
 40
1.0
  9
$DIMASZ
 40
0.18
  9
$DIMEXO
 40
0.0625
  9
$DIMDLI
 40
0.38
  9
$DIMRND
 40
0.0
  9
$DIMDLE
 40
0.0
  9
$DIMEXE
 40
0.18
  9
$DIMTP
 40
0.0
  9
$DIMTM
 40
0.0
  9
$DIMTXT
 40
0.18
  9
$DIMCEN
 40
0.09
  9
$DIMTSZ
 40
0.0
  9
$DIMTOL
 70
     0
  9
$DIMLIM
 70
     0
  9
$DIMTIH
 70
     1
  9
$DIMTOH
 70
     1
  9
$DIMSE1
 70
     0
  9
$DIMSE2
 70
     0
  9
$DIMTAD
 70
     0
  9
$DIMZIN
 70
     0
  9
$DIMBLK
  1

  9
$DIMASO
 70
     1
  9
$DIMSHO
 70
     1
  9
$DIMPOST
  1

  9
$DIMAPOST
  1

  9
$DIMALT
 70
     0
  9
$DIMALTD
 70
     2
  9
$DIMALTF
 40
25.4
  9
$DIMLFAC
 40
1.0
  9
$DIMTOFL
 70
     0
  9
$DIMTVP
 40
0.0
  9
$DIMTIX
 70
     0
  9
$DIMSOXD
 70
     0
  9
$DIMSAH
 70
     0
  9
$DIMBLK1
  1

  9
$DIMBLK2
  1

  9
$DIMSTYLE
  2
Standard
  9
$DIMCLRD
 70
     0
  9
$DIMCLRE
 70
     0
  9
$DIMCLRT
 70
     0
  9
$DIMTFAC
 40
1.0
  9
$DIMGAP
 40
0.09
  9
$DIMJUST
 70
     0
  9
$DIMSD1
 70
     0
  9
$DIMSD2
 70
     0
  9
$DIMTOLJ
 70
     1
  9
$DIMTZIN
 70
     0
  9
$DIMALTZ
 70
     0
  9
$DIMALTTZ
 70
     0
  9
$DIMUPT
 70
     0
  9
$DIMDEC
 70
     4
  9
$DIMTDEC
 70
     4
  9
$DIMALTU
 70
     2
  9
$DIMALTTD
 70
     2
  9
$DIMTXSTY
  7
Standard
  9
$DIMAUNIT
 70
     0
  9
$DIMADEC
 70
     0
  9
$DIMALTRND
 40
0.0
  9
$DIMAZIN
 70
     0
  9
$DIMDSEP
 70
    46
  9
$DIMATFIT
 70
     3
  9
$DIMFRAC
 70
     0
  9
$DIMLDRBLK
  1

  9
$DIMLUNIT
 70
     2
  9
$DIMLWD
 70
    -2
  9
$DIMLWE
 70
    -2
  9
$DIMTMOVE
 70
     0
  9
$DIMFXL
 40
1.0
  9
$DIMFXLON
 70
     0
  9
$DIMJOGANG
 40
0.785398
  9
$DIMTFILL
 70
     0
  9
$DIMTFILLCLR
 70
     0
  9
$DIMARCSYM
 70
     0
  9
$DIMLTYPE
  6

  9
$DIMLTEX1
  6

  9
$DIMLTEX2
  6

  9
$DIMTXTDIRECTION
 70
     0
  9
$LUNITS
 70
     2
  9
$LUPREC
 70
     0
  9
$SKETCHINC
 40
0.1
  9
$FILLETRAD
 40
0.0
  9
$AUNITS
 70
     0
  9
$AUPREC
 70
     0
  9
$MENU
  1
.
  9
$ELEVATION
 40
0.0
  9
$PELEVATION
 40
0.0
  9
$THICKNESS
 40
0.0
  9
$LIMCHECK
 70
     0
  9
$CHAMFERA
 40
0.0
  9
$CHAMFERB
 40
0.0
  9
$CHAMFERC
 40
0.0
  9
$CHAMFERD
 40
0.0
  9
$SKPOLY
 70
     0
  9
$TDCREATE
 40
2454145.111357350
  9
$TDUCREATE
 40
2454144.778024017
  9
$TDUPDATE
 40
2455657.145108565
  9
$TDUUPDATE
 40
2455656.811775231
  9
$TDINDWG
 40
0.0262180556
  9
$TDUSRTIMER
 40
0.0262178704
  9
$USRTIMER
 70
     1
  9
$ANGBASE
 50
0.0
  9
$ANGDIR
 70
     0
  9
$PDMODE
 70
     0
  9
$PDSIZE
 40
0.0
  9
$PLINEWID
 40
0.0
  9
$SPLFRAME
 70
     0
  9
$SPLINETYPE
 70
     6
  9
$SPLINESEGS
 70
     8
  9
$HANDSEED
  5
71807
  9
$SURFTAB1
 70
     6
  9
$SURFTAB2
 70
     6
  9
$SURFTYPE
 70
     6
  9
$SURFU
 70
     6
  9
$SURFV
 70
     6
  9
$UCSBASE
  2

  9
$UCSNAME
  2

  9
$UCSORG
 10
0.0
 20
0.0
 30
0.0
  9
$UCSXDIR
 10
1.0
 20
0.0
 30
0.0
  9
$UCSYDIR
 10
0.0
 20
1.0
 30
0.0
  9
$UCSORTHOREF
  2

  9
$UCSORTHOVIEW
 70
     0
  9
$UCSORGTOP
 10
0.0
 20
0.0
 30
0.0
  9
$UCSORGBOTTOM
 10
0.0
 20
0.0
 30
0.0
  9
$UCSORGLEFT
 10
0.0
 20
0.0
 30
0.0
  9
$UCSORGRIGHT
 10
0.0
 20
0.0
 30
0.0
  9
$UCSORGFRONT
 10
0.0
 20
0.0
 30
0.0
  9
$UCSORGBACK
 10
0.0
 20
0.0
 30
0.0
  9
$PUCSBASE
  2

  9
$PUCSNAME
  2

  9
$PUCSORG
 10
0.0
 20
0.0
 30
0.0
  9
$PUCSXDIR
 10
1.0
 20
0.0
 30
0.0
  9
$PUCSYDIR
 10
0.0
 20
1.0
 30
0.0
  9
$PUCSORTHOREF
  2

  9
$PUCSORTHOVIEW
 70
     0
  9
$PUCSORGTOP
 10
0.0
 20
0.0
 30
0.0
  9
$PUCSORGBOTTOM
 10
0.0
 20
0.0
 30
0.0
  9
$PUCSORGLEFT
 10
0.0
 20
0.0
 30
0.0
  9
$PUCSORGRIGHT
 10
0.0
 20
0.0
 30
0.0
  9
$PUCSORGFRONT
 10
0.0
 20
0.0
 30
0.0
  9
$PUCSORGBACK
 10
0.0
 20
0.0
 30
0.0
  9
$USERI1
 70
     0
  9
$USERI2
 70
     0
  9
$USERI3
 70
     0
  9
$USERI4
 70
     0
  9
$USERI5
 70
     0
  9
$USERR1
 40
0.0
  9
$USERR2
 40
0.0
  9
$USERR3
 40
0.0
  9
$USERR4
 40
0.0
  9
$USERR5
 40
0.0
  9
$WORLDVIEW
 70
     1
  9
$SHADEDGE
 70
     3
  9
$SHADEDIF
 70
    70
  9
$TILEMODE
 70
     1
  9
$MAXACTVP
 70
    64
  9
$PINSBASE
 10
0.0
 20
0.0
 30
0.0
  9
$PLIMCHECK
 70
     0
  9
$PEXTMIN
 10
1.05
 20
0.8
 30
0.0
  9
$PEXTMAX
 10
9.45
 20
7.2
 30
0.0
  9
$PLIMMIN
 10
-0.25
 20
-0.25
  9
$PLIMMAX
 10
10.75
 20
8.25
  9
$UNITMODE
 70
     0
  9
$VISRETAIN
 70
     1
  9
$PLINEGEN
 70
     0
  9
$PSLTSCALE
 70
     0
  9
$TREEDEPTH
 70
  3020
  9
$CMLSTYLE
  2
Standard
  9
$CMLJUST
 70
     0
  9
$CMLSCALE
 40
1.0
  9
$PROXYGRAPHICS
 70
     1
  9
$MEASUREMENT
 70
     0
  9
$CELWEIGHT
370
     0
  9
$ENDCAPS
280
     0
  9
$JOINSTYLE
280
     0
  9
$LWDISPLAY
290
     1
  9
$INSUNITS
 70
     4
  9
$HYPERLINKBASE
  1

  9
$STYLESHEET
  1

  9
$XEDIT
290
     1
  9
$CEPSNTYPE
380
     0
  9
$PSTYLEMODE
290
     1
  9
$FINGERPRINTGUID
  2
{9F4218FA-C166-496D-B320-46D482F88B8E}
  9
$VERSIONGUID
  2
{5066CCA6-5121-4C7B-A04C-375F92FA871B}
  9
$EXTNAMES
290
     1
  9
$PSVPSCALE
 40
0.0
  9
$OLESTARTUP
290
     0
  9
$SORTENTS
280
   127
  9
$INDEXCTL
280
     0
  9
$HIDETEXT
280
     1
  9
$XCLIPFRAME
280
     0
  9
$HALOGAP
280
     0
  9
$OBSCOLOR
 70
   257
  9
$OBSLTYPE
280
     0
  9
$INTERSECTIONDISPLAY
280
     0
  9
$INTERSECTIONCOLOR
 70
   257
  9
$DIMASSOC
280
     1
  9
$PROJECTNAME
  1

  9
$CAMERADISPLAY
290
     0
  9
$LENSLENGTH
 40
50.0
  9
$CAMERAHEIGHT
 40
0.0
  9
$STEPSPERSEC
 40
2.0
  9
$STEPSIZE
 40
6.0
  9
$3DDWFPREC
 40
2.0
  9
$PSOLWIDTH
 40
0.25
  9
$PSOLHEIGHT
 40
4.0
  9
$LOFTANG1
 40
1.570796
  9
$LOFTANG2
 40
1.570796
  9
$LOFTMAG1
 40
0.0
  9
$LOFTMAG2
 40
0.0
  9
$LOFTPARAM
 70
     7
  9
$LOFTNORMALS
280
     1
  9
$LATITUDE
 40
37.795
  9
$LONGITUDE
 40
-122.394
  9
$NORTHDIRECTION
 40
0.0
  9
$TIMEZONE
 70
 -8000
  9
$LIGHTGLYPHDISPLAY
280
     1
  9
$TILEMODELIGHTSYNCH
280
     1
  9
$CMATERIAL
347
71645
  9
$SOLIDHIST
280
     1
  9
$SHOWHIST
280
     1
  9
$DWFFRAME
280
     2
  9
$DGNFRAME
280
     0
  9
$REALWORLDSCALE
290
     1
  9
$INTERFERECOLOR
 62
     1
  9
$INTERFEREOBJVS
345
7165C
  9
$INTERFEREVPVS
346
7165D
  9
$CSHADOW
280
     0
  9
$SHADOWPLANELOCATION
 40
0.0
  0
ENDSEC
  0
SECTION
  2
CLASSES
  0
CLASS
  1
ACDBDICTIONARYWDFLT
  2
AcDbDictionaryWithDefault
  3
ObjectDBX Classes
 90
        0
 91
        1
280
     0
281
     0
  0
CLASS
  1
DICTIONARYVAR
  2
AcDbDictionaryVar
  3
ObjectDBX Classes
 90
        0
 91
        8
280
     0
281
     0
  0
CLASS
  1
TABLESTYLE
  2
AcDbTableStyle
  3
ObjectDBX Classes
 90
     4095
 91
        1
280
     0
281
     0
  0
CLASS
  1
MATERIAL
  2
AcDbMaterial
  3
ObjectDBX Classes
 90
     1153
 91
        3
280
     0
281
     0
  0
CLASS
  1
VISUALSTYLE
  2
AcDbVisualStyle
  3
ObjectDBX Classes
 90
     4095
 91
        3
280
     0
281
     0
  0
CLASS
  1
SCALE
  2
AcDbScale
  3
ObjectDBX Classes
 90
     1153
 91
       33
280
     0
281
     0
  0
CLASS
  1
MLEADERSTYLE
  2
AcDbMLeaderStyle
  3
ACDB_MLEADERSTYLE_CLASS
 90
     4095
 91
        0
280
     0
281
     0
  0
CLASS
  1
EXACXREFPANELOBJECT
  2
ExAcXREFPanelObject
  3
EXAC_ESW
 90
     1025
 91
        0
280
     1
281
     0
  0
CLASS
  1
NPOCOLLECTION
  2
AcDbImpNonPersistentObjectsCollection
  3
ObjectDBX Classes
 90
     1153
 91
        0
280
     0
281
     0
  0
CLASS
  1
CELLSTYLEMAP
  2
AcDbCellStyleMap
  3
ObjectDBX Classes
 90
     1152
 91
        1
280
     0
281
     0
  0
CLASS
  1
ACDBSECTIONVIEWSTYLE
  2
AcDbSectionViewStyle
  3
ObjectDBX Classes
 90
     1025
 91
        0
280
     0
281
     0
  0
CLASS
  1
ACDBDETAILVIEWSTYLE
  2
AcDbDetailViewStyle
  3
ObjectDBX Classes
 90
     1025
 91
        0
280
     0
281
     0
  0
ENDSEC
  0
SECTION
  2
TABLES
  0
TABLE
  2
VPORT
  5
71639
330
0
100
AcDbSymbolTable
 70
     2
  0
VPORT
  5
4B
330
71639
100
AcDbSymbolTableRecord
100
AcDbViewportTableRecord
  2
*ACTIVE
 70
     0
 10
0.0
 20
0.0
 11
1.0
 21
1.0
 12
2890.739
 22
-38.8455
 13
0.0
 23
0.0
 14
1.0
 24
1.0
 15
1.0
 25
1.0
 16
0.0
 26
0.0
 36
1.0
 17
0.0
 27
0.0
 37
0.0
 40
3286.40104
 41
2.090493
 42
50.0
 43
0.0
 44
0.0
 50
0.0
 51
0.0
 71
     0
 72
   100
 73
     1
 74
     0
 75
     0
 76
     0
 77
     0
 78
     1
281
     0
 65
     1
110
0.0
120
0.0
130
0.0
111
1.0
121
0.0
131
0.0
112
0.0
122
1.0
132
0.0
 79
     0
146
0.0
 60
     3
 61
    10
292
     0
282
     1
141
0.0
142
0.0
 63
     7
421
 16777215
  0
ENDTAB
  0
TABLE
  2
LTYPE
  5
71634
330
0
100
AcDbSymbolTable
 70
     2
  0
LTYPE
  5
71635
330
71634
100
AcDbSymbolTableRecord
100
AcDbLinetypeTableRecord
  2
ByBlock
 70
     0
  3

 72
    65
 73
     0
 40
0.0
  0
LTYPE
  5
71636
330
71634
100
AcDbSymbolTableRecord
100
AcDbLinetypeTableRecord
  2
ByLayer
 70
     0
  3

 72
    65
 73
     0
 40
0.0
  0
LTYPE
  5
71621
330
71634
100
AcDbSymbolTableRecord
100
AcDbLinetypeTableRecord
  2
Continuous
 70
     0
  3
Solid line
 72
    65
 73
     0
 40
0.0
  0
LTYPE
  5
717FA
330
71634
100
AcDbSymbolTableRecord
100
AcDbLinetypeTableRecord
  2
DGN Style 2
 70
     0
  3
Dgn Style 2
 72
    65
 73
     2
 40
68.701969
 49
41.221181
 74
     0
 49
-27.480788
 74
     0
  0
ENDTAB
  0
TABLE
  2
LAYER
  5
7162E
102
{ACAD_XDICTIONARY
360
7162F
102
}
330
0
100
AcDbSymbolTable
 70
    65
  0
LAYER
  5
71612
102
{ACAD_XDICTIONARY
360
71613
102
}
330
7162E
100
AcDbSymbolTableRecord
100
AcDbLayerTableRecord
  2
0
 70
     0
 62
     7
  6
Continuous
370
    -3
390
71615
347
71618
348
0
1001
AcCmTransparency
1071
 33554687
  0
LAYER
  5
7
330
7162E
100
AcDbSymbolTableRecord
100
AcDbLayerTableRecord
  2
Level 1
 70
     0
 62
     7
  6
Continuous
370
     0
390
71615
347
71618
348
0
1001
AcCmTransparency
1071
 33554687
  0
LAYER
  5
8
330
7162E
100
AcDbSymbolTableRecord
100
AcDbLayerTableRecord
  2
Level 2
 70
     0
 62
     7
  6
Continuous
370
     0
390
71615
347
71618
348
0
1001
AcCmTransparency
1071
 33554687
  0
LAYER
  5
9
330
7162E
100
AcDbSymbolTableRecord
100
AcDbLayerTableRecord
  2
Level 3
 70
     0
 62
     7
  6
Continuous
370
     0
390
71615
347
71618
348
0
1001
AcCmTransparency
1071
 33554687
  0
LAYER
  5
A
330
7162E
100
AcDbSymbolTableRecord
100
AcDbLayerTableRecord
  2
Level 4
 70
     0
 62
     7
  6
Continuous
370
     0
390
71615
347
71618
348
0
1001
AcCmTransparency
1071
 33554687
  0
LAYER
  5
B
330
7162E
100
AcDbSymbolTableRecord
100
AcDbLayerTableRecord
  2
Level 5
 70
     0
 62
     7
  6
Continuous
370
     0
390
71615
347
71618
348
0
1001
AcCmTransparency
1071
 33554687
  0
LAYER
  5
C
330
7162E
100
AcDbSymbolTableRecord
100
AcDbLayerTableRecord
  2
Level 6
 70
     0
 62
     7
  6
Continuous
370
     0
390
71615
347
71618
348
0
1001
AcCmTransparency
1071
 33554687
  0
LAYER
  5
D
330
7162E
100
AcDbSymbolTableRecord
100
AcDbLayerTableRecord
  2
Level 7
 70
     0
 62
     7
  6
Continuous
370
     0
390
71615
347
71618
348
0
1001
AcCmTransparency
1071
 33554687
  0
LAYER
  5
E
330
7162E
100
AcDbSymbolTableRecord
100
AcDbLayerTableRecord
  2
Level 8
 70
     0
 62
     7
  6
Continuous
370
     0
390
71615
347
71618
348
0
1001
AcCmTransparency
1071
 33554687
  0
LAYER
  5
F
330
7162E
100
AcDbSymbolTableRecord
100
AcDbLayerTableRecord
  2
Level 9
 70
     0
 62
     7
  6
Continuous
370
     0
390
71615
347
71618
348
0
1001
AcCmTransparency
1071
 33554687
  0
LAYER
  5
10
330
7162E
100
AcDbSymbolTableRecord
100
AcDbLayerTableRecord
  2
Level 10
 70
     0
 62
     7
  6
Continuous
370
     0
390
71615
347
71618
348
0
1001
AcCmTransparency
1071
 33554687
  0
LAYER
  5
11
330
7162E
100
AcDbSymbolTableRecord
100
AcDbLayerTableRecord
  2
Level 11
 70
     0
 62
     7
  6
Continuous
370
     0
390
71615
347
71618
348
0
1001
AcCmTransparency
1071
 33554687
  0
LAYER
  5
12
330
7162E
100
AcDbSymbolTableRecord
100
AcDbLayerTableRecord
  2
Level 12
 70
     0
 62
     7
  6
Continuous
370
     0
390
71615
347
71618
348
0
1001
AcCmTransparency
1071
 33554687
  0
LAYER
  5
13
330
7162E
100
AcDbSymbolTableRecord
100
AcDbLayerTableRecord
  2
Level 13
 70
     0
 62
     7
  6
Continuous
370
     0
390
71615
347
71618
348
0
1001
AcCmTransparency
1071
 33554687
  0
LAYER
  5
14
330
7162E
100
AcDbSymbolTableRecord
100
AcDbLayerTableRecord
  2
Level 14
 70
     0
 62
     7
  6
Continuous
370
     0
390
71615
347
71618
348
0
1001
AcCmTransparency
1071
 33554687
  0
LAYER
  5
15
330
7162E
100
AcDbSymbolTableRecord
100
AcDbLayerTableRecord
  2
Level 15
 70
     0
 62
     7
  6
Continuous
370
     0
390
71615
347
71618
348
0
1001
AcCmTransparency
1071
 33554687
  0
LAYER
  5
16
330
7162E
100
AcDbSymbolTableRecord
100
AcDbLayerTableRecord
  2
Level 16
 70
     0
 62
     7
  6
Continuous
370
     0
390
71615
347
71618
348
0
1001
AcCmTransparency
1071
 33554687
  0
LAYER
  5
17
330
7162E
100
AcDbSymbolTableRecord
100
AcDbLayerTableRecord
  2
Level 17
 70
     0
 62
     7
  6
Continuous
370
     0
390
71615
347
71618
348
0
1001
AcCmTransparency
1071
 33554687
  0
LAYER
  5
18
330
7162E
100
AcDbSymbolTableRecord
100
AcDbLayerTableRecord
  2
Level 18
 70
     0
 62
     7
  6
Continuous
370
     0
390
71615
347
71618
348
0
1001
AcCmTransparency
1071
 33554687
  0
LAYER
  5
19
330
7162E
100
AcDbSymbolTableRecord
100
AcDbLayerTableRecord
  2
Level 19
 70
     0
 62
     7
  6
Continuous
370
     0
390
71615
347
71618
348
0
1001
AcCmTransparency
1071
 33554687
  0
LAYER
  5
1A
330
7162E
100
AcDbSymbolTableRecord
100
AcDbLayerTableRecord
  2
Level 20
 70
     0
 62
     7
  6
Continuous
370
     0
390
71615
347
71618
348
0
1001
AcCmTransparency
1071
 33554687
  0
LAYER
  5
1B
330
7162E
100
AcDbSymbolTableRecord
100
AcDbLayerTableRecord
  2
Level 21
 70
     0
 62
     7
  6
Continuous
370
     0
390
71615
347
71618
348
0
1001
AcCmTransparency
1071
 33554687
  0
LAYER
  5
1C
330
7162E
100
AcDbSymbolTableRecord
100
AcDbLayerTableRecord
  2
Level 22
 70
     0
 62
     7
  6
Continuous
370
     0
390
71615
347
71618
348
0
1001
AcCmTransparency
1071
 33554687
  0
LAYER
  5
1D
330
7162E
100
AcDbSymbolTableRecord
100
AcDbLayerTableRecord
  2
Level 23
 70
     0
 62
     7
  6
Continuous
370
     0
390
71615
347
71618
348
0
1001
AcCmTransparency
1071
 33554687
  0
LAYER
  5
1E
330
7162E
100
AcDbSymbolTableRecord
100
AcDbLayerTableRecord
  2
Level 24
 70
     0
 62
     7
  6
Continuous
370
     0
390
71615
347
71618
348
0
1001
AcCmTransparency
1071
 33554687
  0
LAYER
  5
1F
330
7162E
100
AcDbSymbolTableRecord
100
AcDbLayerTableRecord
  2
Level 25
 70
     0
 62
     7
  6
Continuous
370
     0
390
71615
347
71618
348
0
1001
AcCmTransparency
1071
 33554687
  0
LAYER
  5
20
330
7162E
100
AcDbSymbolTableRecord
100
AcDbLayerTableRecord
  2
Level 26
 70
     0
 62
     7
  6
Continuous
370
     0
390
71615
347
71618
348
0
1001
AcCmTransparency
1071
 33554687
  0
LAYER
  5
21
330
7162E
100
AcDbSymbolTableRecord
100
AcDbLayerTableRecord
  2
Level 27
 70
     0
 62
     7
  6
Continuous
370
     0
390
71615
347
71618
348
0
1001
AcCmTransparency
1071
 33554687
  0
LAYER
  5
22
330
7162E
100
AcDbSymbolTableRecord
100
AcDbLayerTableRecord
  2
Level 28
 70
     0
 62
     7
  6
Continuous
370
     0
390
71615
347
71618
348
0
1001
AcCmTransparency
1071
 33554687
  0
LAYER
  5
23
330
7162E
100
AcDbSymbolTableRecord
100
AcDbLayerTableRecord
  2
Level 29
 70
     0
 62
     7
  6
Continuous
370
     0
390
71615
347
71618
348
0
1001
AcCmTransparency
1071
 33554687
  0
LAYER
  5
24
330
7162E
100
AcDbSymbolTableRecord
100
AcDbLayerTableRecord
  2
Level 30
 70
     0
 62
     7
  6
Continuous
370
     0
390
71615
347
71618
348
0
1001
AcCmTransparency
1071
 33554687
  0
LAYER
  5
25
330
7162E
100
AcDbSymbolTableRecord
100
AcDbLayerTableRecord
  2
Level 31
 70
     0
 62
     7
  6
Continuous
370
     0
390
71615
347
71618
348
0
1001
AcCmTransparency
1071
 33554687
  0
LAYER
  5
26
330
7162E
100
AcDbSymbolTableRecord
100
AcDbLayerTableRecord
  2
Level 32
 70
     0
 62
     7
  6
Continuous
370
     0
390
71615
347
71618
348
0
1001
AcCmTransparency
1071
 33554687
  0
LAYER
  5
27
330
7162E
100
AcDbSymbolTableRecord
100
AcDbLayerTableRecord
  2
Level 33
 70
     0
 62
     7
  6
Continuous
370
     0
390
71615
347
71618
348
0
1001
AcCmTransparency
1071
 33554687
  0
LAYER
  5
28
330
7162E
100
AcDbSymbolTableRecord
100
AcDbLayerTableRecord
  2
Level 34
 70
     0
 62
     7
  6
Continuous
370
     0
390
71615
347
71618
348
0
1001
AcCmTransparency
1071
 33554687
  0
LAYER
  5
29
330
7162E
100
AcDbSymbolTableRecord
100
AcDbLayerTableRecord
  2
Level 35
 70
     0
 62
     7
  6
Continuous
370
     0
390
71615
347
71618
348
0
1001
AcCmTransparency
1071
 33554687
  0
LAYER
  5
2A
330
7162E
100
AcDbSymbolTableRecord
100
AcDbLayerTableRecord
  2
Level 36
 70
     0
 62
     7
  6
Continuous
370
     0
390
71615
347
71618
348
0
1001
AcCmTransparency
1071
 33554687
  0
LAYER
  5
2B
330
7162E
100
AcDbSymbolTableRecord
100
AcDbLayerTableRecord
  2
Level 37
 70
     0
 62
     7
  6
Continuous
370
     0
390
71615
347
71618
348
0
1001
AcCmTransparency
1071
 33554687
  0
LAYER
  5
2C
330
7162E
100
AcDbSymbolTableRecord
100
AcDbLayerTableRecord
  2
Level 38
 70
     0
 62
     7
  6
Continuous
370
     0
390
71615
347
71618
348
0
1001
AcCmTransparency
1071
 33554687
  0
LAYER
  5
2D
330
7162E
100
AcDbSymbolTableRecord
100
AcDbLayerTableRecord
  2
Level 39
 70
     0
 62
     7
  6
Continuous
370
     0
390
71615
347
71618
348
0
1001
AcCmTransparency
1071
 33554687
  0
LAYER
  5
2E
330
7162E
100
AcDbSymbolTableRecord
100
AcDbLayerTableRecord
  2
Level 40
 70
     0
 62
     7
  6
Continuous
370
     0
390
71615
347
71618
348
0
1001
AcCmTransparency
1071
 33554687
  0
LAYER
  5
2F
330
7162E
100
AcDbSymbolTableRecord
100
AcDbLayerTableRecord
  2
Level 41
 70
     0
 62
     7
  6
Continuous
370
     0
390
71615
347
71618
348
0
1001
AcCmTransparency
1071
 33554687
  0
LAYER
  5
30
330
7162E
100
AcDbSymbolTableRecord
100
AcDbLayerTableRecord
  2
Level 42
 70
     0
 62
     7
  6
Continuous
370
     0
390
71615
347
71618
348
0
1001
AcCmTransparency
1071
 33554687
  0
LAYER
  5
31
330
7162E
100
AcDbSymbolTableRecord
100
AcDbLayerTableRecord
  2
Level 43
 70
     0
 62
     7
  6
Continuous
370
     0
390
71615
347
71618
348
0
1001
AcCmTransparency
1071
 33554687
  0
LAYER
  5
32
330
7162E
100
AcDbSymbolTableRecord
100
AcDbLayerTableRecord
  2
Level 44
 70
     0
 62
     7
  6
Continuous
370
     0
390
71615
347
71618
348
0
1001
AcCmTransparency
1071
 33554687
  0
LAYER
  5
33
330
7162E
100
AcDbSymbolTableRecord
100
AcDbLayerTableRecord
  2
Level 45
 70
     0
 62
     7
  6
Continuous
370
     0
390
71615
347
71618
348
0
1001
AcCmTransparency
1071
 33554687
  0
LAYER
  5
34
330
7162E
100
AcDbSymbolTableRecord
100
AcDbLayerTableRecord
  2
Level 46
 70
     0
 62
     7
  6
Continuous
370
     0
390
71615
347
71618
348
0
1001
AcCmTransparency
1071
 33554687
  0
LAYER
  5
35
330
7162E
100
AcDbSymbolTableRecord
100
AcDbLayerTableRecord
  2
Level 47
 70
     0
 62
     7
  6
Continuous
370
     0
390
71615
347
71618
348
0
1001
AcCmTransparency
1071
 33554687
  0
LAYER
  5
36
330
7162E
100
AcDbSymbolTableRecord
100
AcDbLayerTableRecord
  2
Level 48
 70
     0
 62
     7
  6
Continuous
370
     0
390
71615
347
71618
348
0
1001
AcCmTransparency
1071
 33554687
  0
LAYER
  5
37
330
7162E
100
AcDbSymbolTableRecord
100
AcDbLayerTableRecord
  2
Level 49
 70
     0
 62
     7
  6
Continuous
370
     0
390
71615
347
71618
348
0
1001
AcCmTransparency
1071
 33554687
  0
LAYER
  5
38
330
7162E
100
AcDbSymbolTableRecord
100
AcDbLayerTableRecord
  2
Level 50
 70
     0
 62
     7
  6
Continuous
370
     0
390
71615
347
71618
348
0
1001
AcCmTransparency
1071
 33554687
  0
LAYER
  5
39
330
7162E
100
AcDbSymbolTableRecord
100
AcDbLayerTableRecord
  2
Level 51
 70
     0
 62
     7
  6
Continuous
370
     0
390
71615
347
71618
348
0
1001
AcCmTransparency
1071
 33554687
  0
LAYER
  5
3A
330
7162E
100
AcDbSymbolTableRecord
100
AcDbLayerTableRecord
  2
Level 52
 70
     0
 62
     7
  6
Continuous
370
     0
390
71615
347
71618
348
0
1001
AcCmTransparency
1071
 33554687
  0
LAYER
  5
3B
330
7162E
100
AcDbSymbolTableRecord
100
AcDbLayerTableRecord
  2
Level 53
 70
     0
 62
     7
  6
Continuous
370
     0
390
71615
347
71618
348
0
1001
AcCmTransparency
1071
 33554687
  0
LAYER
  5
3C
330
7162E
100
AcDbSymbolTableRecord
100
AcDbLayerTableRecord
  2
Level 54
 70
     0
 62
     7
  6
Continuous
370
     0
390
71615
347
71618
348
0
1001
AcCmTransparency
1071
 33554687
  0
LAYER
  5
3D
330
7162E
100
AcDbSymbolTableRecord
100
AcDbLayerTableRecord
  2
Level 55
 70
     0
 62
     7
  6
Continuous
370
     0
390
71615
347
71618
348
0
1001
AcCmTransparency
1071
 33554687
  0
LAYER
  5
3E
330
7162E
100
AcDbSymbolTableRecord
100
AcDbLayerTableRecord
  2
Level 56
 70
     0
 62
     7
  6
Continuous
370
     0
390
71615
347
71618
348
0
1001
AcCmTransparency
1071
 33554687
  0
LAYER
  5
3F
330
7162E
100
AcDbSymbolTableRecord
100
AcDbLayerTableRecord
  2
Level 57
 70
     0
 62
     7
  6
Continuous
370
     0
390
71615
347
71618
348
0
1001
AcCmTransparency
1071
 33554687
  0
LAYER
  5
40
330
7162E
100
AcDbSymbolTableRecord
100
AcDbLayerTableRecord
  2
Level 58
 70
     0
 62
     7
  6
Continuous
370
     0
390
71615
347
71618
348
0
1001
AcCmTransparency
1071
 33554687
  0
LAYER
  5
41
330
7162E
100
AcDbSymbolTableRecord
100
AcDbLayerTableRecord
  2
Level 59
 70
     0
 62
     7
  6
Continuous
370
     0
390
71615
347
71618
348
0
1001
AcCmTransparency
1071
 33554687
  0
LAYER
  5
42
330
7162E
100
AcDbSymbolTableRecord
100
AcDbLayerTableRecord
  2
Level 60
 70
     0
 62
     7
  6
Continuous
370
     0
390
71615
347
71618
348
0
1001
AcCmTransparency
1071
 33554687
  0
LAYER
  5
43
330
7162E
100
AcDbSymbolTableRecord
100
AcDbLayerTableRecord
  2
Level 61
 70
     0
 62
     7
  6
Continuous
370
     0
390
71615
347
71618
348
0
1001
AcCmTransparency
1071
 33554687
  0
LAYER
  5
44
330
7162E
100
AcDbSymbolTableRecord
100
AcDbLayerTableRecord
  2
Level 62
 70
     0
 62
     7
  6
Continuous
370
     0
390
71615
347
71618
348
0
1001
AcCmTransparency
1071
 33554687
  0
LAYER
  5
45
330
7162E
100
AcDbSymbolTableRecord
100
AcDbLayerTableRecord
  2
Level 63
 70
     0
 62
     7
  6
Continuous
370
     0
390
71615
347
71618
348
0
1001
AcCmTransparency
1071
 33554687
  0
LAYER
  5
50CA0
330
7162E
100
AcDbSymbolTableRecord
100
AcDbLayerTableRecord
  2
25
 70
     0
 62
     7
  6
Continuous
370
     0
390
71615
347
71618
348
0
1001
AcCmTransparency
1071
 33554687
  0
ENDTAB
  0
TABLE
  2
STYLE
  5
71631
330
0
100
AcDbSymbolTable
 70
     1
  0
STYLE
  5
71632
330
71631
100
AcDbSymbolTableRecord
100
AcDbTextStyleTableRecord
  2
Standard
 70
     0
 40
0.0
 41
1.0
 50
0.0
 71
     0
 42
100.0
  3
txt
  4

  0
ENDTAB
  0
TABLE
  2
VIEW
  5
71637
330
0
100
AcDbSymbolTable
 70
     0
  0
ENDTAB
  0
TABLE
  2
UCS
  5
71638
330
0
100
AcDbSymbolTable
 70
     0
  0
ENDTAB
  0
TABLE
  2
APPID
  5
7163D
330
0
100
AcDbSymbolTable
 70
     3
  0
APPID
  5
7163E
330
7163D
100
AcDbSymbolTableRecord
100
AcDbRegAppTableRecord
  2
ACAD
 70
     0
  0
APPID
  5
7162D
330
7163D
100
AcDbSymbolTableRecord
100
AcDbRegAppTableRecord
  2
ACAD_PSEXT
 70
     0
  0
APPID
  5
71681
330
7163D
100
AcDbSymbolTableRecord
100
AcDbRegAppTableRecord
  2
AcCmTransparency
 70
     0
  0
ENDTAB
  0
TABLE
  2
DIMSTYLE
  5
7163F
330
0
100
AcDbSymbolTable
 70
     1
100
AcDbDimStyleTable
 71
     1
340
71640
  0
DIMSTYLE
105
71640
330
7163F
100
AcDbSymbolTableRecord
100
AcDbDimStyleTableRecord
  2
Standard
 70
     0
340
71632
  0
ENDTAB
  0
TABLE
  2
BLOCK_RECORD
  5
7160F
330
0
100
AcDbSymbolTable
 70
   126
  0
BLOCK_RECORD
  5
71610
330
7160F
100
AcDbSymbolTableRecord
100
AcDbBlockTableRecord
  2
*Model_Space
340
71623
 70
     0
280
     1
281
     0
  0
BLOCK_RECORD
  5
71627
330
7160F
100
AcDbSymbolTableRecord
100
AcDbBlockTableRecord
  2
*Paper_Space
340
7162A
 70
     0
280
     1
281
     0
  0
BLOCK_RECORD
  5
71602
330
7160F
100
AcDbSymbolTableRecord
100
AcDbBlockTableRecord
  2
*U0
340
0
 70
     0
280
     1
281
     0
  0
BLOCK_RECORD
  5
71604
330
7160F
100
AcDbSymbolTableRecord
100
AcDbBlockTableRecord
  2
*U1
340
0
 70
     0
280
     1
281
     0
  0
BLOCK_RECORD
  5
7160A
330
7160F
100
AcDbSymbolTableRecord
100
AcDbBlockTableRecord
  2
*U2
340
0
 70
     0
280
     1
281
     0
  0
BLOCK_RECORD
  5
7160C
330
7160F
100
AcDbSymbolTableRecord
100
AcDbBlockTableRecord
  2
*U3
340
0
 70
     0
280
     1
281
     0
  0
BLOCK_RECORD
  5
7168C
330
7160F
100
AcDbSymbolTableRecord
100
AcDbBlockTableRecord
  2
A3015S
340
0
102
{BLKREFS
331
71448
102
}
 70
     0
280
     1
281
     0
  0
BLOCK_RECORD
  5
7168F
330
7160F
100
AcDbSymbolTableRecord
100
AcDbBlockTableRecord
  2
0
340
0
102
{BLKREFS
331
71449
102
}
 70
     0
280
     1
281
     0
  0
BLOCK_RECORD
  5
71692
330
7160F
100
AcDbSymbolTableRecord
100
AcDbBlockTableRecord
  2
Feature Solid
340
0
102
{BLKREFS
331
7144A
102
}
 70
     0
280
     1
281
     0
  0
BLOCK_RECORD
  5
71695
330
7160F
100
AcDbSymbolTableRecord
100
AcDbBlockTableRecord
  2
UNITE
340
0
102
{BLKREFS
331
7144B
102
}
 70
     0
280
     1
281
     0
  0
BLOCK_RECORD
  5
71698
330
7160F
100
AcDbSymbolTableRecord
100
AcDbBlockTableRecord
  2
Feature Solid_1
340
0
102
{BLKREFS
331
7144C
102
}
 70
     0
280
     1
281
     0
  0
BLOCK_RECORD
  5
7169B
330
7160F
100
AcDbSymbolTableRecord
100
AcDbBlockTableRecord
  2
UNITE_1
340
0
102
{BLKREFS
331
7144D
102
}
 70
     0
280
     1
281
     0
  0
BLOCK_RECORD
  5
7169E
330
7160F
100
AcDbSymbolTableRecord
100
AcDbBlockTableRecord
  2
Feature Solid_2
340
0
102
{BLKREFS
331
7144E
102
}
 70
     0
280
     1
281
     0
  0
BLOCK_RECORD
  5
716A1
330
7160F
100
AcDbSymbolTableRecord
100
AcDbBlockTableRecord
  2
UNITE_2
340
0
102
{BLKREFS
331
7144F
102
}
 70
     0
280
     1
281
     0
  0
BLOCK_RECORD
  5
716A4
330
7160F
100
AcDbSymbolTableRecord
100
AcDbBlockTableRecord
  2
Feature Solid_3
340
0
102
{BLKREFS
331
71452
102
}
 70
     0
280
     1
281
     0
  0
BLOCK_RECORD
  5
716A7
330
7160F
100
AcDbSymbolTableRecord
100
AcDbBlockTableRecord
  2
ROUNDE
340
0
102
{BLKREFS
331
71453
102
}
 70
     0
280
     1
281
     0
  0
BLOCK_RECORD
  5
716AA
330
7160F
100
AcDbSymbolTableRecord
100
AcDbBlockTableRecord
  2
ROUNDE_1
340
0
102
{BLKREFS
331
71454
102
}
 70
     0
280
     1
281
     0
  0
BLOCK_RECORD
  5
716AD
330
7160F
100
AcDbSymbolTableRecord
100
AcDbBlockTableRecord
  2
ROUNDE_2
340
0
102
{BLKREFS
331
71455
102
}
 70
     0
280
     1
281
     0
  0
BLOCK_RECORD
  5
716B0
330
7160F
100
AcDbSymbolTableRecord
100
AcDbBlockTableRecord
  2
SUBTRC
340
0
102
{BLKREFS
331
71456
102
}
 70
     0
280
     1
281
     0
  0
BLOCK_RECORD
  5
716B3
330
7160F
100
AcDbSymbolTableRecord
100
AcDbBlockTableRecord
  2
Feature Solid_4
340
0
102
{BLKREFS
331
71459
102
}
 70
     0
280
     1
281
     0
  0
BLOCK_RECORD
  5
716B6
330
7160F
100
AcDbSymbolTableRecord
100
AcDbBlockTableRecord
  2
SUBTRC_1
340
0
102
{BLKREFS
331
7145A
102
}
 70
     0
280
     1
281
     0
  0
BLOCK_RECORD
  5
716B9
330
7160F
100
AcDbSymbolTableRecord
100
AcDbBlockTableRecord
  2
Feature Solid_5
340
0
102
{BLKREFS
331
7145D
102
}
 70
     0
280
     1
281
     0
  0
BLOCK_RECORD
  5
716BC
330
7160F
100
AcDbSymbolTableRecord
100
AcDbBlockTableRecord
  2
UNITE_3
340
0
102
{BLKREFS
331
7145E
102
}
 70
     0
280
     1
281
     0
  0
BLOCK_RECORD
  5
716BF
330
7160F
100
AcDbSymbolTableRecord
100
AcDbBlockTableRecord
  2
Feature Solid_6
340
0
102
{BLKREFS
331
7145F
102
}
 70
     0
280
     1
281
     0
  0
BLOCK_RECORD
  5
716C2
330
7160F
100
AcDbSymbolTableRecord
100
AcDbBlockTableRecord
  2
SUBTRC_2
340
0
102
{BLKREFS
331
71460
102
}
 70
     0
280
     1
281
     0
  0
BLOCK_RECORD
  5
716C5
330
7160F
100
AcDbSymbolTableRecord
100
AcDbBlockTableRecord
  2
Feature Solid_7
340
0
102
{BLKREFS
331
71463
102
}
 70
     0
280
     1
281
     0
  0
BLOCK_RECORD
  5
716C8
330
7160F
100
AcDbSymbolTableRecord
100
AcDbBlockTableRecord
  2
ROUNDE_3
340
0
102
{BLKREFS
331
71464
102
}
 70
     0
280
     1
281
     0
  0
BLOCK_RECORD
  5
716CB
330
7160F
100
AcDbSymbolTableRecord
100
AcDbBlockTableRecord
  2
SUBTRC_3
340
0
102
{BLKREFS
331
71465
102
}
 70
     0
280
     1
281
     0
  0
BLOCK_RECORD
  5
716CE
330
7160F
100
AcDbSymbolTableRecord
100
AcDbBlockTableRecord
  2
Feature Solid_8
340
0
102
{BLKREFS
331
71468
102
}
 70
     0
280
     1
281
     0
  0
BLOCK_RECORD
  5
716D1
330
7160F
100
AcDbSymbolTableRecord
100
AcDbBlockTableRecord
  2
UNITE_4
340
0
102
{BLKREFS
331
71469
102
}
 70
     0
280
     1
281
     0
  0
BLOCK_RECORD
  5
716D4
330
7160F
100
AcDbSymbolTableRecord
100
AcDbBlockTableRecord
  2
Feature Solid_9
340
0
102
{BLKREFS
331
7146A
102
}
 70
     0
280
     1
281
     0
  0
BLOCK_RECORD
  5
716D7
330
7160F
100
AcDbSymbolTableRecord
100
AcDbBlockTableRecord
  2
SLAB
340
0
102
{BLKREFS
331
7146B
102
}
 70
     0
280
     1
281
     0
  0
BLOCK_RECORD
  5
716DA
330
7160F
100
AcDbSymbolTableRecord
100
AcDbBlockTableRecord
  2
Feature Solid_10
340
0
102
{BLKREFS
331
7146E
102
}
 70
     0
280
     1
281
     0
  0
BLOCK_RECORD
  5
716DD
330
7160F
100
AcDbSymbolTableRecord
100
AcDbBlockTableRecord
  2
CONE
340
0
102
{BLKREFS
331
7146F
102
}
 70
     0
280
     1
281
     0
  0
BLOCK_RECORD
  5
716E0
330
7160F
100
AcDbSymbolTableRecord
100
AcDbBlockTableRecord
  2
Feature Solid_11
340
0
102
{BLKREFS
331
71471
102
}
 70
     0
280
     1
281
     0
  0
BLOCK_RECORD
  5
716E3
330
7160F
100
AcDbSymbolTableRecord
100
AcDbBlockTableRecord
  2
DDREVL
340
0
102
{BLKREFS
331
71472
102
}
 70
     0
280
     1
281
     0
  0
BLOCK_RECORD
  5
716E6
330
7160F
100
AcDbSymbolTableRecord
100
AcDbBlockTableRecord
  2
Feature Solid_12
340
0
102
{BLKREFS
331
71497
102
}
 70
     0
280
     1
281
     0
  0
BLOCK_RECORD
  5
716E9
330
7160F
100
AcDbSymbolTableRecord
100
AcDbBlockTableRecord
  2
UNITE_5
340
0
102
{BLKREFS
331
71498
102
}
 70
     0
280
     1
281
     0
  0
BLOCK_RECORD
  5
716EC
330
7160F
100
AcDbSymbolTableRecord
100
AcDbBlockTableRecord
  2
Feature Solid_13
340
0
102
{BLKREFS
331
71499
102
}
 70
     0
280
     1
281
     0
  0
BLOCK_RECORD
  5
716EF
330
7160F
100
AcDbSymbolTableRecord
100
AcDbBlockTableRecord
  2
DDREVL_1
340
0
102
{BLKREFS
331
7149A
102
}
 70
     0
280
     1
281
     0
  0
BLOCK_RECORD
  5
716F2
330
7160F
100
AcDbSymbolTableRecord
100
AcDbBlockTableRecord
  2
Feature Solid_14
340
0
102
{BLKREFS
331
714A1
102
}
 70
     0
280
     1
281
     0
  0
BLOCK_RECORD
  5
716F5
330
7160F
100
AcDbSymbolTableRecord
100
AcDbBlockTableRecord
  2
ROUNDE_4
340
0
102
{BLKREFS
331
714A2
102
}
 70
     0
280
     1
281
     0
  0
BLOCK_RECORD
  5
716F8
330
7160F
100
AcDbSymbolTableRecord
100
AcDbBlockTableRecord
  2
ROUNDE_5
340
0
102
{BLKREFS
331
714A3
102
}
 70
     0
280
     1
281
     0
  0
BLOCK_RECORD
  5
716FB
330
7160F
100
AcDbSymbolTableRecord
100
AcDbBlockTableRecord
  2
ROUNDE_6
340
0
102
{BLKREFS
331
714A4
102
}
 70
     0
280
     1
281
     0
  0
BLOCK_RECORD
  5
716FE
330
7160F
100
AcDbSymbolTableRecord
100
AcDbBlockTableRecord
  2
SUBTRC_4
340
0
102
{BLKREFS
331
714A5
102
}
 70
     0
280
     1
281
     0
  0
BLOCK_RECORD
  5
71701
330
7160F
100
AcDbSymbolTableRecord
100
AcDbBlockTableRecord
  2
Feature Solid_15
340
0
102
{BLKREFS
331
714A8
102
}
 70
     0
280
     1
281
     0
  0
BLOCK_RECORD
  5
71704
330
7160F
100
AcDbSymbolTableRecord
100
AcDbBlockTableRecord
  2
SUBTRC_5
340
0
102
{BLKREFS
331
714A9
102
}
 70
     0
280
     1
281
     0
  0
BLOCK_RECORD
  5
71707
330
7160F
100
AcDbSymbolTableRecord
100
AcDbBlockTableRecord
  2
Feature Solid_16
340
0
102
{BLKREFS
331
714AC
102
}
 70
     0
280
     1
281
     0
  0
BLOCK_RECORD
  5
7170A
330
7160F
100
AcDbSymbolTableRecord
100
AcDbBlockTableRecord
  2
UNITE_6
340
0
102
{BLKREFS
331
714AD
102
}
 70
     0
280
     1
281
     0
  0
BLOCK_RECORD
  5
7170D
330
7160F
100
AcDbSymbolTableRecord
100
AcDbBlockTableRecord
  2
Feature Solid_17
340
0
102
{BLKREFS
331
714AE
102
}
 70
     0
280
     1
281
     0
  0
BLOCK_RECORD
  5
71710
330
7160F
100
AcDbSymbolTableRecord
100
AcDbBlockTableRecord
  2
SUBTRC_6
340
0
102
{BLKREFS
331
714AF
102
}
 70
     0
280
     1
281
     0
  0
BLOCK_RECORD
  5
71713
330
7160F
100
AcDbSymbolTableRecord
100
AcDbBlockTableRecord
  2
Feature Solid_18
340
0
102
{BLKREFS
331
714B2
102
}
 70
     0
280
     1
281
     0
  0
BLOCK_RECORD
  5
71716
330
7160F
100
AcDbSymbolTableRecord
100
AcDbBlockTableRecord
  2
ROUNDE_7
340
0
102
{BLKREFS
331
714B3
102
}
 70
     0
280
     1
281
     0
  0
BLOCK_RECORD
  5
71719
330
7160F
100
AcDbSymbolTableRecord
100
AcDbBlockTableRecord
  2
SUBTRC_7
340
0
102
{BLKREFS
331
714B4
102
}
 70
     0
280
     1
281
     0
  0
BLOCK_RECORD
  5
7171C
330
7160F
100
AcDbSymbolTableRecord
100
AcDbBlockTableRecord
  2
Feature Solid_19
340
0
102
{BLKREFS
331
714B5
102
}
 70
     0
280
     1
281
     0
  0
BLOCK_RECORD
  5
7171F
330
7160F
100
AcDbSymbolTableRecord
100
AcDbBlockTableRecord
  2
CONE_1
340
0
102
{BLKREFS
331
714B6
102
}
 70
     0
280
     1
281
     0
  0
BLOCK_RECORD
  5
71722
330
7160F
100
AcDbSymbolTableRecord
100
AcDbBlockTableRecord
  2
Feature Solid_20
340
0
102
{BLKREFS
331
714BF
102
}
 70
     0
280
     1
281
     0
  0
BLOCK_RECORD
  5
71725
330
7160F
100
AcDbSymbolTableRecord
100
AcDbBlockTableRecord
  2
UNITE_7
340
0
102
{BLKREFS
331
714C0
102
}
 70
     0
280
     1
281
     0
  0
BLOCK_RECORD
  5
71728
330
7160F
100
AcDbSymbolTableRecord
100
AcDbBlockTableRecord
  2
Feature Solid_21
340
0
102
{BLKREFS
331
714C1
102
}
 70
     0
280
     1
281
     0
  0
BLOCK_RECORD
  5
7172B
330
7160F
100
AcDbSymbolTableRecord
100
AcDbBlockTableRecord
  2
SLAB_1
340
0
102
{BLKREFS
331
714C2
102
}
 70
     0
280
     1
281
     0
  0
BLOCK_RECORD
  5
7172E
330
7160F
100
AcDbSymbolTableRecord
100
AcDbBlockTableRecord
  2
Feature Solid_22
340
0
102
{BLKREFS
331
714C5
102
}
 70
     0
280
     1
281
     0
  0
BLOCK_RECORD
  5
71731
330
7160F
100
AcDbSymbolTableRecord
100
AcDbBlockTableRecord
  2
CONE_2
340
0
102
{BLKREFS
331
714C6
102
}
 70
     0
280
     1
281
     0
  0
BLOCK_RECORD
  5
71734
330
7160F
100
AcDbSymbolTableRecord
100
AcDbBlockTableRecord
  2
Feature Solid_23
340
0
102
{BLKREFS
331
714CD
102
}
 70
     0
280
     1
281
     0
  0
BLOCK_RECORD
  5
71737
330
7160F
100
AcDbSymbolTableRecord
100
AcDbBlockTableRecord
  2
DDREVL_2
340
0
102
{BLKREFS
331
714CE
102
}
 70
     0
280
     1
281
     0
  0
BLOCK_RECORD
  5
7173A
330
7160F
100
AcDbSymbolTableRecord
100
AcDbBlockTableRecord
  2
0_1
340
0
102
{BLKREFS
331
71509
102
}
 70
     0
280
     1
281
     0
  0
BLOCK_RECORD
  5
7173D
330
7160F
100
AcDbSymbolTableRecord
100
AcDbBlockTableRecord
  2
Feature Solid_24
340
0
102
{BLKREFS
331
7150A
102
}
 70
     0
280
     1
281
     0
  0
BLOCK_RECORD
  5
71740
330
7160F
100
AcDbSymbolTableRecord
100
AcDbBlockTableRecord
  2
UNITE_8
340
0
102
{BLKREFS
331
7150B
102
}
 70
     0
280
     1
281
     0
  0
BLOCK_RECORD
  5
71743
330
7160F
100
AcDbSymbolTableRecord
100
AcDbBlockTableRecord
  2
Feature Solid_25
340
0
102
{BLKREFS
331
7150C
102
}
 70
     0
280
     1
281
     0
  0
BLOCK_RECORD
  5
71746
330
7160F
100
AcDbSymbolTableRecord
100
AcDbBlockTableRecord
  2
UNITE_9
340
0
102
{BLKREFS
331
7150D
102
}
 70
     0
280
     1
281
     0
  0
BLOCK_RECORD
  5
71749
330
7160F
100
AcDbSymbolTableRecord
100
AcDbBlockTableRecord
  2
Feature Solid_26
340
0
102
{BLKREFS
331
7150E
102
}
 70
     0
280
     1
281
     0
  0
BLOCK_RECORD
  5
7174C
330
7160F
100
AcDbSymbolTableRecord
100
AcDbBlockTableRecord
  2
UNITE_10
340
0
102
{BLKREFS
331
7150F
102
}
 70
     0
280
     1
281
     0
  0
BLOCK_RECORD
  5
7174F
330
7160F
100
AcDbSymbolTableRecord
100
AcDbBlockTableRecord
  2
Feature Solid_27
340
0
102
{BLKREFS
331
71512
102
}
 70
     0
280
     1
281
     0
  0
BLOCK_RECORD
  5
71752
330
7160F
100
AcDbSymbolTableRecord
100
AcDbBlockTableRecord
  2
ROUNDE_8
340
0
102
{BLKREFS
331
71513
102
}
 70
     0
280
     1
281
     0
  0
BLOCK_RECORD
  5
71755
330
7160F
100
AcDbSymbolTableRecord
100
AcDbBlockTableRecord
  2
ROUNDE_9
340
0
102
{BLKREFS
331
71514
102
}
 70
     0
280
     1
281
     0
  0
BLOCK_RECORD
  5
71758
330
7160F
100
AcDbSymbolTableRecord
100
AcDbBlockTableRecord
  2
ROUNDE_10
340
0
102
{BLKREFS
331
71515
102
}
 70
     0
280
     1
281
     0
  0
BLOCK_RECORD
  5
7175B
330
7160F
100
AcDbSymbolTableRecord
100
AcDbBlockTableRecord
  2
SUBTRC_8
340
0
102
{BLKREFS
331
71516
102
}
 70
     0
280
     1
281
     0
  0
BLOCK_RECORD
  5
7175E
330
7160F
100
AcDbSymbolTableRecord
100
AcDbBlockTableRecord
  2
Feature Solid_28
340
0
102
{BLKREFS
331
71519
102
}
 70
     0
280
     1
281
     0
  0
BLOCK_RECORD
  5
71761
330
7160F
100
AcDbSymbolTableRecord
100
AcDbBlockTableRecord
  2
SUBTRC_9
340
0
102
{BLKREFS
331
7151A
102
}
 70
     0
280
     1
281
     0
  0
BLOCK_RECORD
  5
71764
330
7160F
100
AcDbSymbolTableRecord
100
AcDbBlockTableRecord
  2
Feature Solid_29
340
0
102
{BLKREFS
331
7151D
102
}
 70
     0
280
     1
281
     0
  0
BLOCK_RECORD
  5
71767
330
7160F
100
AcDbSymbolTableRecord
100
AcDbBlockTableRecord
  2
UNITE_11
340
0
102
{BLKREFS
331
7151E
102
}
 70
     0
280
     1
281
     0
  0
BLOCK_RECORD
  5
7176A
330
7160F
100
AcDbSymbolTableRecord
100
AcDbBlockTableRecord
  2
Feature Solid_30
340
0
102
{BLKREFS
331
7151F
102
}
 70
     0
280
     1
281
     0
  0
BLOCK_RECORD
  5
7176D
330
7160F
100
AcDbSymbolTableRecord
100
AcDbBlockTableRecord
  2
SUBTRC_10
340
0
102
{BLKREFS
331
71520
102
}
 70
     0
280
     1
281
     0
  0
BLOCK_RECORD
  5
71770
330
7160F
100
AcDbSymbolTableRecord
100
AcDbBlockTableRecord
  2
Feature Solid_31
340
0
102
{BLKREFS
331
71523
102
}
 70
     0
280
     1
281
     0
  0
BLOCK_RECORD
  5
71773
330
7160F
100
AcDbSymbolTableRecord
100
AcDbBlockTableRecord
  2
ROUNDE_11
340
0
102
{BLKREFS
331
71524
102
}
 70
     0
280
     1
281
     0
  0
BLOCK_RECORD
  5
71776
330
7160F
100
AcDbSymbolTableRecord
100
AcDbBlockTableRecord
  2
SUBTRC_11
340
0
102
{BLKREFS
331
71525
102
}
 70
     0
280
     1
281
     0
  0
BLOCK_RECORD
  5
71779
330
7160F
100
AcDbSymbolTableRecord
100
AcDbBlockTableRecord
  2
Feature Solid_32
340
0
102
{BLKREFS
331
71528
102
}
 70
     0
280
     1
281
     0
  0
BLOCK_RECORD
  5
7177C
330
7160F
100
AcDbSymbolTableRecord
100
AcDbBlockTableRecord
  2
UNITE_12
340
0
102
{BLKREFS
331
71529
102
}
 70
     0
280
     1
281
     0
  0
BLOCK_RECORD
  5
7177F
330
7160F
100
AcDbSymbolTableRecord
100
AcDbBlockTableRecord
  2
Feature Solid_33
340
0
102
{BLKREFS
331
7152A
102
}
 70
     0
280
     1
281
     0
  0
BLOCK_RECORD
  5
71782
330
7160F
100
AcDbSymbolTableRecord
100
AcDbBlockTableRecord
  2
SLAB_2
340
0
102
{BLKREFS
331
7152B
102
}
 70
     0
280
     1
281
     0
  0
BLOCK_RECORD
  5
71785
330
7160F
100
AcDbSymbolTableRecord
100
AcDbBlockTableRecord
  2
Feature Solid_34
340
0
102
{BLKREFS
331
7152E
102
}
 70
     0
280
     1
281
     0
  0
BLOCK_RECORD
  5
71788
330
7160F
100
AcDbSymbolTableRecord
100
AcDbBlockTableRecord
  2
CONE_3
340
0
102
{BLKREFS
331
7152F
102
}
 70
     0
280
     1
281
     0
  0
BLOCK_RECORD
  5
7178B
330
7160F
100
AcDbSymbolTableRecord
100
AcDbBlockTableRecord
  2
Feature Solid_35
340
0
102
{BLKREFS
331
71531
102
}
 70
     0
280
     1
281
     0
  0
BLOCK_RECORD
  5
7178E
330
7160F
100
AcDbSymbolTableRecord
100
AcDbBlockTableRecord
  2
DDREVL_3
340
0
102
{BLKREFS
331
71532
102
}
 70
     0
280
     1
281
     0
  0
BLOCK_RECORD
  5
71791
330
7160F
100
AcDbSymbolTableRecord
100
AcDbBlockTableRecord
  2
Feature Solid_36
340
0
102
{BLKREFS
331
71557
102
}
 70
     0
280
     1
281
     0
  0
BLOCK_RECORD
  5
71794
330
7160F
100
AcDbSymbolTableRecord
100
AcDbBlockTableRecord
  2
UNITE_13
340
0
102
{BLKREFS
331
71558
102
}
 70
     0
280
     1
281
     0
  0
BLOCK_RECORD
  5
71797
330
7160F
100
AcDbSymbolTableRecord
100
AcDbBlockTableRecord
  2
Feature Solid_37
340
0
102
{BLKREFS
331
71559
102
}
 70
     0
280
     1
281
     0
  0
BLOCK_RECORD
  5
7179A
330
7160F
100
AcDbSymbolTableRecord
100
AcDbBlockTableRecord
  2
DDREVL_4
340
0
102
{BLKREFS
331
7155A
102
}
 70
     0
280
     1
281
     0
  0
BLOCK_RECORD
  5
7179D
330
7160F
100
AcDbSymbolTableRecord
100
AcDbBlockTableRecord
  2
Feature Solid_38
340
0
102
{BLKREFS
331
71561
102
}
 70
     0
280
     1
281
     0
  0
BLOCK_RECORD
  5
717A0
330
7160F
100
AcDbSymbolTableRecord
100
AcDbBlockTableRecord
  2
ROUNDE_12
340
0
102
{BLKREFS
331
71562
102
}
 70
     0
280
     1
281
     0
  0
BLOCK_RECORD
  5
717A3
330
7160F
100
AcDbSymbolTableRecord
100
AcDbBlockTableRecord
  2
ROUNDE_13
340
0
102
{BLKREFS
331
71563
102
}
 70
     0
280
     1
281
     0
  0
BLOCK_RECORD
  5
717A6
330
7160F
100
AcDbSymbolTableRecord
100
AcDbBlockTableRecord
  2
ROUNDE_14
340
0
102
{BLKREFS
331
71564
102
}
 70
     0
280
     1
281
     0
  0
BLOCK_RECORD
  5
717A9
330
7160F
100
AcDbSymbolTableRecord
100
AcDbBlockTableRecord
  2
SUBTRC_12
340
0
102
{BLKREFS
331
71565
102
}
 70
     0
280
     1
281
     0
  0
BLOCK_RECORD
  5
717AC
330
7160F
100
AcDbSymbolTableRecord
100
AcDbBlockTableRecord
  2
Feature Solid_39
340
0
102
{BLKREFS
331
71568
102
}
 70
     0
280
     1
281
     0
  0
BLOCK_RECORD
  5
717AF
330
7160F
100
AcDbSymbolTableRecord
100
AcDbBlockTableRecord
  2
SUBTRC_13
340
0
102
{BLKREFS
331
71569
102
}
 70
     0
280
     1
281
     0
  0
BLOCK_RECORD
  5
717B2
330
7160F
100
AcDbSymbolTableRecord
100
AcDbBlockTableRecord
  2
Feature Solid_40
340
0
102
{BLKREFS
331
7156C
102
}
 70
     0
280
     1
281
     0
  0
BLOCK_RECORD
  5
717B5
330
7160F
100
AcDbSymbolTableRecord
100
AcDbBlockTableRecord
  2
UNITE_14
340
0
102
{BLKREFS
331
7156D
102
}
 70
     0
280
     1
281
     0
  0
BLOCK_RECORD
  5
717B8
330
7160F
100
AcDbSymbolTableRecord
100
AcDbBlockTableRecord
  2
Feature Solid_41
340
0
102
{BLKREFS
331
7156E
102
}
 70
     0
280
     1
281
     0
  0
BLOCK_RECORD
  5
717BB
330
7160F
100
AcDbSymbolTableRecord
100
AcDbBlockTableRecord
  2
SUBTRC_14
340
0
102
{BLKREFS
331
7156F
102
}
 70
     0
280
     1
281
     0
  0
BLOCK_RECORD
  5
717BE
330
7160F
100
AcDbSymbolTableRecord
100
AcDbBlockTableRecord
  2
Feature Solid_42
340
0
102
{BLKREFS
331
71572
102
}
 70
     0
280
     1
281
     0
  0
BLOCK_RECORD
  5
717C1
330
7160F
100
AcDbSymbolTableRecord
100
AcDbBlockTableRecord
  2
ROUNDE_15
340
0
102
{BLKREFS
331
71573
102
}
 70
     0
280
     1
281
     0
  0
BLOCK_RECORD
  5
717C4
330
7160F
100
AcDbSymbolTableRecord
100
AcDbBlockTableRecord
  2
SUBTRC_15
340
0
102
{BLKREFS
331
71574
102
}
 70
     0
280
     1
281
     0
  0
BLOCK_RECORD
  5
717C7
330
7160F
100
AcDbSymbolTableRecord
100
AcDbBlockTableRecord
  2
Feature Solid_43
340
0
102
{BLKREFS
331
71575
102
}
 70
     0
280
     1
281
     0
  0
BLOCK_RECORD
  5
717CA
330
7160F
100
AcDbSymbolTableRecord
100
AcDbBlockTableRecord
  2
CONE_4
340
0
102
{BLKREFS
331
71576
102
}
 70
     0
280
     1
281
     0
  0
BLOCK_RECORD
  5
717CD
330
7160F
100
AcDbSymbolTableRecord
100
AcDbBlockTableRecord
  2
Feature Solid_44
340
0
102
{BLKREFS
331
7157F
102
}
 70
     0
280
     1
281
     0
  0
BLOCK_RECORD
  5
717D0
330
7160F
100
AcDbSymbolTableRecord
100
AcDbBlockTableRecord
  2
UNITE_15
340
0
102
{BLKREFS
331
71580
102
}
 70
     0
280
     1
281
     0
  0
BLOCK_RECORD
  5
717D3
330
7160F
100
AcDbSymbolTableRecord
100
AcDbBlockTableRecord
  2
Feature Solid_45
340
0
102
{BLKREFS
331
71581
102
}
 70
     0
280
     1
281
     0
  0
BLOCK_RECORD
  5
717D6
330
7160F
100
AcDbSymbolTableRecord
100
AcDbBlockTableRecord
  2
SLAB_3
340
0
102
{BLKREFS
331
71582
102
}
 70
     0
280
     1
281
     0
  0
BLOCK_RECORD
  5
717D9
330
7160F
100
AcDbSymbolTableRecord
100
AcDbBlockTableRecord
  2
Feature Solid_46
340
0
102
{BLKREFS
331
71585
102
}
 70
     0
280
     1
281
     0
  0
BLOCK_RECORD
  5
717DC
330
7160F
100
AcDbSymbolTableRecord
100
AcDbBlockTableRecord
  2
CONE_5
340
0
102
{BLKREFS
331
71586
102
}
 70
     0
280
     1
281
     0
  0
BLOCK_RECORD
  5
717DF
330
7160F
100
AcDbSymbolTableRecord
100
AcDbBlockTableRecord
  2
Feature Solid_47
340
0
102
{BLKREFS
331
7158D
102
}
 70
     0
280
     1
281
     0
  0
BLOCK_RECORD
  5
717E2
330
7160F
100
AcDbSymbolTableRecord
100
AcDbBlockTableRecord
  2
DDREVL_5
340
0
102
{BLKREFS
331
7158E
102
}
 70
     0
280
     1
281
     0
  0
BLOCK_RECORD
  5
717E5
330
7160F
100
AcDbSymbolTableRecord
100
AcDbBlockTableRecord
  2
Feature Solid_48
340
0
102
{BLKREFS
331
715C9
102
}
 70
     0
280
     1
281
     0
  0
BLOCK_RECORD
  5
717E8
330
7160F
100
AcDbSymbolTableRecord
100
AcDbBlockTableRecord
  2
EXTEND
340
0
102
{BLKREFS
331
715CA
102
}
 70
     0
280
     1
281
     0
  0
BLOCK_RECORD
  5
717EB
330
7160F
100
AcDbSymbolTableRecord
100
AcDbBlockTableRecord
  2
UNITE_16
340
0
102
{BLKREFS
331
715CB
102
}
 70
     0
280
     1
281
     0
  0
BLOCK_RECORD
  5
717EE
330
7160F
100
AcDbSymbolTableRecord
100
AcDbBlockTableRecord
  2
Feature Solid_49
340
0
102
{BLKREFS
331
715CF
102
}
 70
     0
280
     1
281
     0
  0
BLOCK_RECORD
  5
717F1
330
7160F
100
AcDbSymbolTableRecord
100
AcDbBlockTableRecord
  2
CUT
340
0
102
{BLKREFS
331
715D0
102
}
 70
     0
280
     1
281
     0
  0
BLOCK_RECORD
  5
717F4
330
7160F
100
AcDbSymbolTableRecord
100
AcDbBlockTableRecord
  2
DDPROJ
340
0
102
{BLKREFS
331
715D1
102
}
 70
     0
280
     1
281
     0
  0
BLOCK_RECORD
  5
717F7
330
7160F
100
AcDbSymbolTableRecord
100
AcDbBlockTableRecord
  2
Smart Solid
340
0
102
{BLKREFS
331
715D8
102
}
 70
     0
280
     1
281
     0
  0
ENDTAB
  0
ENDSEC
  0
SECTION
  2
BLOCKS
  0
BLOCK
  5
71611
330
71610
100
AcDbEntity
  8
0
100
AcDbBlockBegin
  2
*Model_Space
 70
     0
 10
0.0
 20
0.0
 30
0.0
  3
*Model_Space
  1

  0
ENDBLK
  5
71622
330
71610
100
AcDbEntity
  8
0
100
AcDbBlockEnd
  0
BLOCK
  5
71628
330
71627
100
AcDbEntity
 67
     1
  8
0
100
AcDbBlockBegin
  2
*Paper_Space
 70
     0
 10
0.0
 20
0.0
 30
0.0
  3
*Paper_Space
  1

  0
ENDBLK
  5
71629
330
71627
100
AcDbEntity
 67
     1
  8
0
100
AcDbBlockEnd
  0
BLOCK
  5
71684
330
71602
100
AcDbEntity
  8
0
100
AcDbBlockBegin
  2
*U0
 70
     1
 10
0.0
 20
0.0
 30
0.0
  3
*U0
  1

  0
LWPOLYLINE
  5
71603
330
71602
100
AcDbEntity
  8
0
100
AcDbPolyline
 90
        4
 70
   129
 43
0.0
 10
-0.111569
 20
-0.055784
 10
0.111569
 20
-0.055784
 10
0.111569
 20
0.167353
 10
-0.111569
 20
-0.055784
  0
ENDBLK
  5
71685
330
71602
100
AcDbEntity
  8
0
100
AcDbBlockEnd
  0
BLOCK
  5
71686
330
71604
100
AcDbEntity
  8
0
100
AcDbBlockBegin
  2
*U1
 70
     1
 10
0.0
 20
0.0
 30
0.0
  3
*U1
  1

  0
LWPOLYLINE
  5
71605
330
71604
100
AcDbEntity
  8
0
100
AcDbPolyline
 90
        5
 70
   129
 43
0.0
 10
-0.105116
 20
0.16
 10
-0.105116
 20
-0.16
 10
0.004884
 20
-0.16
 42
1.0
 10
0.004884
 20
0.16
 10
-0.105116
 20
0.16
  0
ENDBLK
  5
71687
330
71604
100
AcDbEntity
  8
0
100
AcDbBlockEnd
  0
BLOCK
  5
71688
330
7160A
100
AcDbEntity
  8
0
100
AcDbBlockBegin
  2
*U2
 70
     1
 10
0.0
 20
0.0
 30
0.0
  3
*U2
  1

  0
LINE
  5
7160B
330
7160A
100
AcDbEntity
  8
0
 62
   136
370
    13
100
AcDbLine
 10
0.0
 20
290.388544
 30
0.0
 11
0.0
 21
-618.653854
 31
0.0
  0
ENDBLK
  5
71689
330
7160A
100
AcDbEntity
  8
0
100
AcDbBlockEnd
  0
BLOCK
  5
7168A
330
7160C
100
AcDbEntity
  8
0
100
AcDbBlockBegin
  2
*U3
 70
     1
 10
0.0
 20
0.0
 30
0.0
  3
*U3
  1

  0
CIRCLE
  5
7160D
330
7160C
100
AcDbEntity
  8
0
  6
Continuous
 62
   136
370
     0
100
AcDbCircle
 10
0.0
 20
0.0
 30
0.0
 40
24.0
  0
ENDBLK
  5
7168B
330
7160C
100
AcDbEntity
  8
0
100
AcDbBlockEnd
  0
BLOCK
  5
7168D
330
7168C
100
AcDbEntity
  8
0
 62
    98
370
     0
100
AcDbBlockBegin
  2
A3015S
 70
     0
 10
0.0
 20
0.0
 30
0.0
  3
A3015S
  1

  0
INSERT
  5
71449
330
7168C
100
AcDbEntity
  8
Level 26
 62
     7
370
    13
100
AcDbBlockReference
  2
0
 10
0.0
 20
0.0
 30
0.0
 41
10201.0
 42
10201.0
 43
10201.0
 50
180.0
  0
INSERT
  5
71509
330
7168C
100
AcDbEntity
  8
Level 26
 62
     7
370
    13
100
AcDbBlockReference
  2
0_1
 10
1299.378368
 20
-0.597495
 30
0.0
 41
10201.0
 42
10201.0
 43
10201.0
  0
INSERT
  5
715C9
330
7168C
100
AcDbEntity
  8
Level 25
  6
Continuous
 62
   253
370
    13
100
AcDbBlockReference
  2
Feature Solid_48
 10
649.688957
 20
0.000178
 30
0.0
  0
INSERT
  5
715D8
330
7168C
100
AcDbEntity
  8
Level 26
  6
Continuous
 62
     7
370
    13
100
AcDbBlockReference
  2
Smart Solid
 10
649.689184
 20
-1.194872
 30
0.0
  0
ENDBLK
  5
7168E
330
7168C
100
AcDbEntity
  8
0
 62
    98
370
     0
100
AcDbBlockEnd
  0
BLOCK
  5
71690
330
7168F
100
AcDbEntity
  8
0
 62
    98
370
     0
100
AcDbBlockBegin
  2
0
 70
     0
 10
0.0
 20
0.0
 30
0.0
  3
0
  1

  0
INSERT
  5
7144A
330
7168F
100
AcDbEntity
  8
Level 26
 62
     7
370
    13
100
AcDbBlockReference
  2
Feature Solid
 10
-0.000739
 20
0.000003
 30
0.0
 41
0.000098
 42
0.000098
 43
0.000098
 50
0.0
  0
ENDBLK
  5
71691
330
7168F
100
AcDbEntity
  8
0
 62
    98
370
     0
100
AcDbBlockEnd
  0
BLOCK
  5
71693
330
71692
100
AcDbEntity
  8
0
 62
    98
370
     0
100
AcDbBlockBegin
  2
Feature Solid
 70
     0
 10
0.0
 20
0.0
 30
0.0
  3
Feature Solid
  1

  0
INSERT
  5
7144B
330
71692
100
AcDbEntity
  8
Level 26
 62
     7
370
    13
100
AcDbBlockReference
  2
UNITE
 10
-1261.2375
 20
-459.1965
 30
0.0
  0
ENDBLK
  5
71694
330
71692
100
AcDbEntity
  8
0
 62
    98
370
     0
100
AcDbBlockEnd
  0
BLOCK
  5
71696
330
71695
100
AcDbEntity
  8
0
 62
    98
370
     0
100
AcDbBlockBegin
  2
UNITE
 70
     0
 10
0.0
 20
0.0
 30
0.0
  3
UNITE
  1

  0
INSERT
  5
7144C
330
71695
100
AcDbEntity
  8
Level 26
 62
     7
370
    13
100
AcDbBlockReference
  2
Feature Solid_1
 10
0.0
 20
0.0
 30
0.0
  0
INSERT
  5
71497
330
71695
100
AcDbEntity
  8
Level 26
 62
     7
370
    13
100
AcDbBlockReference
  2
Feature Solid_12
 10
0.0
 20
0.0
 30
0.0
  0
ENDBLK
  5
71697
330
71695
100
AcDbEntity
  8
0
 62
    98
370
     0
100
AcDbBlockEnd
  0
BLOCK
  5
71699
330
71698
100
AcDbEntity
  8
0
 62
    98
370
     0
100
AcDbBlockBegin
  2
Feature Solid_1
 70
     0
 10
0.0
 20
0.0
 30
0.0
  3
Feature Solid_1
  1

  0
INSERT
  5
7144D
330
71698
100
AcDbEntity
  8
Level 26
 62
     7
370
    13
100
AcDbBlockReference
  2
UNITE_1
 10
753.095703
 20
0.0
 30
0.0
  0
ENDBLK
  5
7169A
330
71698
100
AcDbEntity
  8
0
 62
    98
370
     0
100
AcDbBlockEnd
  0
BLOCK
  5
7169C
330
7169B
100
AcDbEntity
  8
0
 62
    98
370
     0
100
AcDbBlockBegin
  2
UNITE_1
 70
     0
 10
0.0
 20
0.0
 30
0.0
  3
UNITE_1
  1

  0
INSERT
  5
7144E
330
7169B
100
AcDbEntity
  8
Level 26
 62
     7
370
    13
100
AcDbBlockReference
  2
Feature Solid_2
 10
0.0
 20
0.0
 30
0.0
  0
ENDBLK
  5
7169D
330
7169B
100
AcDbEntity
  8
0
 62
    98
370
     0
100
AcDbBlockEnd
  0
BLOCK
  5
7169F
330
7169E
100
AcDbEntity
  8
0
 62
    98
370
     0
100
AcDbBlockBegin
  2
Feature Solid_2
 70
     0
 10
0.0
 20
0.0
 30
0.0
  3
Feature Solid_2
  1

  0
INSERT
  5
7144F
330
7169E
100
AcDbEntity
  8
Level 26
 62
     7
370
    13
100
AcDbBlockReference
  2
UNITE_2
 10
0.0
 20
0.0
 30
0.0
  0
ENDBLK
  5
716A0
330
7169E
100
AcDbEntity
  8
0
 62
    98
370
     0
100
AcDbBlockEnd
  0
BLOCK
  5
716A2
330
716A1
100
AcDbEntity
  8
0
 62
    98
370
     0
100
AcDbBlockBegin
  2
UNITE_2
 70
     0
 10
0.0
 20
0.0
 30
0.0
  3
UNITE_2
  1

  0
INSERT
  5
71452
330
716A1
100
AcDbEntity
  8
Level 26
 62
     7
370
    13
100
AcDbBlockReference
  2
Feature Solid_3
 10
0.0
 20
0.0
 30
0.0
  0
ENDBLK
  5
716A3
330
716A1
100
AcDbEntity
  8
0
 62
    98
370
     0
100
AcDbBlockEnd
  0
BLOCK
  5
716A5
330
716A4
100
AcDbEntity
  8
0
 62
    98
370
     0
100
AcDbBlockBegin
  2
Feature Solid_3
 70
     0
 10
0.0
 20
0.0
 30
0.0
  3
Feature Solid_3
  1

  0
INSERT
  5
71453
330
716A4
100
AcDbEntity
  8
Level 26
 62
     7
370
    13
100
AcDbBlockReference
  2
ROUNDE
 10
0.0
 20
0.0
 30
0.0
  0
ENDBLK
  5
716A6
330
716A4
100
AcDbEntity
  8
0
 62
    98
370
     0
100
AcDbBlockEnd
  0
BLOCK
  5
716A8
330
716A7
100
AcDbEntity
  8
0
 62
    98
370
     0
100
AcDbBlockBegin
  2
ROUNDE
 70
     0
 10
0.0
 20
0.0
 30
0.0
  3
ROUNDE
  1

  0
INSERT
  5
71454
330
716A7
100
AcDbEntity
  8
Level 26
 62
     7
370
    13
100
AcDbBlockReference
  2
ROUNDE_1
 10
0.0
 20
0.0
 30
0.0
  0
SPLINE
  5
7148C
330
716A7
100
AcDbEntity
  8
Level 26
 62
     7
370
    13
100
AcDbSpline
210
0.0
220
0.0
230
1.0
 70
     8
 71
     3
 72
    24
 73
    20
 74
     0
 42
0.000000001
 43
0.0000000001
 40
0.0
 40
0.0
 40
0.0
 40
0.0
 40
0.125
 40
0.125
 40
0.25
 40
0.25
 40
0.3749999999999999
 40
0.3749999999999999
 40
0.5
 40
0.5
 40
0.625
 40
0.625
 40
0.7499999999999999
 40
0.7499999999999999
 40
0.8749999999999998
 40
0.8749999999999998
 40
0.9374999999999998
 40
0.9374999999999998
 40
1.0
 40
1.0
 40
1.0
 40
1.0
 10
461.2498241587391
 20
427.3555561754182
 30
0.0
 10
461.7801534765844
 20
427.3555561754182
 30
0.0
 10
462.3278052910864
 20
427.189421470488
 30
0.0
 10
463.4806525247172
 20
426.5388250759947
 30
0.0
 10
464.090889191199
 20
426.0485455131755
 30
0.0
 10
465.3663621581682
 20
424.759790284032
 30
0.0
 10
466.0232587748541
 20
423.9718424481201
 30
0.0
 10
467.3951718370804
 20
422.1240933969915
 30
0.0
 10
468.1175885779184
 20
421.0508662993605
 30
0.0
 10
469.6063098218364
 20
418.7098492197431
 30
0.0
 10
470.3723271069898
 20
417.4429261974166
 30
0.0
 10
472.0035764647163
 20
414.7508776481347
 30
0.0
 10
472.8729293226674
 20
413.3148738618014
 30
0.0
 10
474.7663465166465
 20
410.454045732095
 30
0.0
 10
475.80153055669
 20
409.0005592279369
 30
0.0
 10
477.6466863433161
 20
407.0043312918837
 30
0.0
 10
478.3048818663246
 20
406.3793505046308
 30
0.0
 10
479.7515639489479
 20
405.2606444420466
 30
0.0
 10
480.5445250727907
 20
404.7688223927115
 30
0.0
 10
481.3880726398938
 20
404.3847405900569
 30
0.0
  0
LINE
  5
7148F
330
716A7
100
AcDbEntity
  8
Level 26
 62
     7
370
    13
100
AcDbLine
 10
461.249824
 20
427.355556
 30
0.0
 11
460.574692
 21
427.355556
 31
0.0
  0
SPLINE
  5
71490
330
716A7
100
AcDbEntity
  8
Level 26
 62
     7
370
    13
100
AcDbSpline
210
0.0
220
0.0
230
1.0
 70
     8
 71
     3
 72
    22
 73
    18
 74
     0
 42
0.000000001
 43
0.0000000001
 40
0.0
 40
0.0
 40
0.0
 40
0.0
 40
0.125
 40
0.125
 40
0.25
 40
0.25
 40
0.375
 40
0.375
 40
0.5
 40
0.5
 40
0.625
 40
0.625
 40
0.75
 40
0.75
 40
0.875
 40
0.875
 40
1.0
 40
1.0
 40
1.0
 40
1.0
 10
494.7550696414301
 20
412.1021799071571
 30
0.0
 10
492.8514949507712
 20
412.9484371875981
 30
0.0
 10
491.0263121883572
 20
413.8977838814398
 30
0.0
 10
487.530966229167
 20
415.9842052152474
 30
0.0
 10
485.8416483023761
 20
417.1377189676213
 30
0.0
 10
482.7501793335227
 20
419.5130949053904
 30
0.0
 10
481.3402082716861
 20
420.7357438310856
 30
0.0
 10
478.7689715915471
 20
423.1978908623364
 30
0.0
 10
477.6192726630084
 20
424.4292201585696
 30
0.0
 10
475.645050908934
 20
426.7239433456277
 30
0.0
 10
474.7961983149462
 20
427.8139236371508
 30
0.0
 10
473.3829907567874
 20
429.7479973500776
 30
0.0
 10
472.8207218412048
 20
430.5864514574316
 30
0.0
 10
471.9282717503793
 20
431.9721142985104
 30
0.0
 10
471.6021961568517
 20
432.5132678879425
 30
0.0
 10
471.1763735450504
 20
433.2304108873644
 30
0.0
 10
471.0709202188549
 20
433.4155561753912
 30
0.0
 10
471.0709202188513
 20
433.4155561753912
 30
0.0
  0
LINE
  5
71493
330
716A7
100
AcDbEntity
  8
Level 26
 62
     7
370
    13
100
AcDbLine
 10
460.574692
 20
427.355556
 30
0.0
 11
471.07092
 21
433.415556
 31
0.0
  0
LINE
  5
71494
330
716A7
100
AcDbEntity
  8
Level 26
 62
     7
370
    13
100
AcDbLine
 10
481.388073
 20
404.384741
 30
0.0
 11
494.75507
 21
412.10218
 31
0.0
  0
ENDBLK
  5
716A9
330
716A7
100
AcDbEntity
  8
0
 62
    98
370
     0
100
AcDbBlockEnd
  0
BLOCK
  5
716AB
330
716AA
100
AcDbEntity
  8
0
 62
    98
370
     0
100
AcDbBlockBegin
  2
ROUNDE_1
 70
     0
 10
0.0
 20
0.0
 30
0.0
  3
ROUNDE_1
  1

  0
INSERT
  5
71455
330
716AA
100
AcDbEntity
  8
Level 26
 62
     7
370
    13
100
AcDbBlockReference
  2
ROUNDE_2
 10
0.0
 20
0.0
 30
0.0
  0
SPLINE
  5
7147A
330
716AA
100
AcDbEntity
  8
Level 26
 62
     7
370
    13
100
AcDbSpline
210
0.0
220
0.0
230
1.0
 70
     8
 71
     3
 72
    10
 73
     6
 74
     0
 42
0.000000001
 43
0.0000000001
 40
0.0
 40
0.0
 40
0.0
 40
0.0
 40
0.5
 40
0.5
 40
1.0
 40
1.0
 40
1.0
 40
1.0
 10
507.7431907767095
 20
397.0555561754182
 30
0.0
 10
503.1935701783299
 20
397.533714552119
 30
0.0
 10
498.6662530938834
 20
398.3993119062586
 30
0.0
 10
489.8515622729323
 20
400.8804762929949
 30
0.0
 10
485.5507501042334
 20
402.4894015164552
 30
0.0
 10
481.3880726398897
 20
404.3847405900592
 30
0.0
  0
SPLINE
  5
7147D
330
716AA
100
AcDbEntity
  8
Level 26
 62
     7
370
    13
100
AcDbSpline
210
0.0
220
0.0
230
1.0
 70
    24
 71
     3
 72
    16
 73
    12
 74
     0
 42
0.000000001
 43
0.0000000001
 40
0.0
 40
0.0
 40
0.0
 40
0.0
 40
0.2499999999999999
 40
0.2499999999999999
 40
0.3749999999999998
 40
0.3749999999999998
 40
0.4999999999999999
 40
0.4999999999999999
 40
0.75
 40
0.75
 40
1.0
 40
1.0
 40
1.0
 40
1.0
 10
461.2498241587391
 20
427.3555561754182
 30
0.0
 10
457.4956294249518
 20
427.3555561754182
 30
0.0
 10
453.8521075398362
 20
427.3555561754182
 30
0.0
 10
448.6990803471358
 20
427.3555561754182
 30
0.0
 10
447.0289193884768
 20
427.3555561754182
 30
0.0
 10
443.7942813138293
 20
427.3555561754182
 30
0.0
 10
442.2225745750665
 20
427.3555561754182
 30
0.0
 10
437.7605294288323
 20
427.3555561754182
 30
0.0
 10
435.1022329370639
 20
427.3555561754182
 30
0.0
 10
430.7352053517847
 20
427.3555561754182
 30
0.0
 10
428.9818763304574
 20
427.3555561754182
 30
0.0
 10
427.7964800754525
 20
427.3555561754182
 30
0.0
  0
SPLINE
  5
71480
330
716AA
100
AcDbEntity
  8
Level 26
 62
     7
370
    13
100
AcDbSpline
210
0.0
220
0.0
230
1.0
 70
     8
 71
     3
 72
    18
 73
    14
 74
     0
 42
0.000000001
 43
0.0000000001
 40
0.0
 40
0.0
 40
0.0
 40
0.0
 40
0.2500000000000014
 40
0.2500000000000014
 40
0.5000000000000029
 40
0.5000000000000029
 40
0.6250000000000022
 40
0.6250000000000022
 40
0.7500000000000015
 40
0.7500000000000015
 40
0.8750000000000007
 40
0.8750000000000007
 40
1.0
 40
1.0
 40
1.0
 40
1.0
 10
427.7964800754525
 20
427.3555561754182
 30
0.0
 10
428.1536055644937
 20
427.3555561754182
 30
0.0
 10
428.6420332971438
 20
427.3582460970646
 30
0.0
 10
429.7327101668193
 20
427.4432367999871
 30
0.0
 10
430.3348168836309
 20
427.5202377139684
 30
0.0
 10
431.1443107899276
 20
427.9053044495658
 30
0.0
 10
431.4026924257614
 20
428.0827944787667
 30
0.0
 10
431.8502092355788
 20
428.5924916414908
 30
0.0
 10
432.045930195868
 20
428.9266263939738
 30
0.0
 10
432.2466865980027
 20
429.8154081079387
 30
0.0
 10
432.2274664272217
 20
430.3876556237979
 30
0.0
 10
431.7931926155315
 20
431.4979001417644
 30
0.0
 10
431.4096045370324
 20
431.9964166946216
 30
0.0
 10
431.0031330221181
 20
432.4055561754183
 30
0.0
  0
SPLINE
  5
71483
330
716AA
100
AcDbEntity
  8
Level 26
 62
     7
370
    13
100
AcDbSpline
210
0.0
220
0.0
230
1.0
 70
     8
 71
     3
 72
    18
 73
    14
 74
     0
 42
0.000000001
 43
0.0000000001
 40
0.0
 40
0.0
 40
0.0
 40
0.0
 40
0.2500000000000001
 40
0.2500000000000001
 40
0.5000000000000001
 40
0.5000000000000001
 40
0.6250000000000001
 40
0.6250000000000001
 40
0.7500000000000002
 40
0.7500000000000002
 40
0.8750000000000001
 40
0.8750000000000001
 40
1.0
 40
1.0
 40
1.0
 40
1.0
 10
442.336901154209
 20
439.0631410505269
 30
0.0
 10
443.1967505675852
 20
436.4966211337578
 30
0.0
 10
444.0400868290549
 20
433.9054712516884
 30
0.0
 10
445.6422716797701
 20
428.7652007034672
 30
0.0
 10
446.4006967233417
 20
426.2064137738799
 30
0.0
 10
447.4923302078359
 20
422.5566312331353
 30
0.0
 10
447.8454432914295
 20
421.3860749941026
 30
0.0
 10
448.5480701447126
 20
419.195070817343
 30
0.0
 10
448.9035956503449
 20
418.157021903703
 30
0.0
 10
449.6281394894013
 20
416.3750047218418
 30
0.0
 10
449.9991355971542
 20
415.6239813067633
 30
0.0
 10
450.8108912960551
 20
414.5163701215079
 30
0.0
 10
451.2297901167271
 20
414.1945528702811
 30
0.0
 10
451.76173629912
 20
413.9939284174908
 30
0.0
  0
SPLINE
  5
71486
330
716AA
100
AcDbEntity
  8
Level 26
 62
     7
370
    13
100
AcDbSpline
210
0.0
220
0.0
230
1.0
 70
     8
 71
     3
 72
    20
 73
    16
 74
     0
 42
0.000000001
 43
0.0000000001
 40
0.0
 40
0.0
 40
0.0
 40
0.0
 40
0.0624999999999998
 40
0.0624999999999998
 40
0.1249999999999996
 40
0.1249999999999996
 40
0.2499999999999996
 40
0.2499999999999996
 40
0.3749999999999997
 40
0.3749999999999997
 40
0.4999999999999999
 40
0.4999999999999999
 40
0.75
 40
0.75
 40
1.0
 40
1.0
 40
1.0
 40
1.0
 10
451.76173629912
 20
413.9939284174908
 30
0.0
 10
452.2785077335948
 20
413.799027147979
 30
0.0
 10
453.0037623830248
 20
413.5235935661588
 30
0.0
 10
454.6629256408623
 20
412.8843802231541
 30
0.0
 10
455.6119206688663
 20
412.5148286382202
 30
0.0
 10
458.6755494195222
 20
411.3079815305658
 30
0.0
 10
460.9461647425814
 20
410.3951803165465
 30
0.0
 10
465.563103541147
 20
408.5395819192241
 30
0.0
 10
467.9542262581699
 20
407.5802546270145
 30
0.0
 10
472.7549870273583
 20
405.7134063770218
 30
0.0
 10
475.1683675443792
 20
404.8046117980835
 30
0.0
 10
482.457326815158
 20
402.2246599983261
 30
0.0
 10
487.3824938878042
 20
400.7046270843735
 30
0.0
 10
497.4161869253626
 20
398.337583083083
 30
0.0
 10
502.5245256486014
 20
397.4879773642138
 30
0.0
 10
507.7431907767131
 20
397.0555561754178
 30
0.0
  0
ELLIPSE
  5
71489
330
716AA
100
AcDbEntity
  8
Level 26
 62
     7
370
    13
100
AcDbEllipse
 10
427.79648
 20
397.055556
 30
0.0
 11
0.0
 21
30.3
 31
0.0
210
0.0
220
0.0
230
-0.9999999999999998
 40
0.9539045718304087
 41
0.000000000000008
 42
0.9775902890469838
  0
ELLIPSE
  5
7148A
330
716AA
100
AcDbEntity
  8
Level 26
 62
     7
370
    13
100
AcDbEllipse
 10
418.052966
 20
432.405556
 30
0.0
 11
28.05443211839423
 21
11.44721968490218
 31
0.0
210
0.0
220
0.0
230
0.9999999999999998
 40
0.1758217249114038
 41
-1.163941045086461
 42
-0.6004811796356311
  0
ELLIPSE
  5
7148B
330
716AA
100
AcDbEntity
  8
Level 26
 62
     7
370
    13
100
AcDbEllipse
 10
423.366343
 20
406.367613
 30
0.0
 11
30.16462650409884
 21
2.860997705035547
 31
0.0
210
0.0
220
0.0
230
1.0
 40
0.7542389838019893
 41
0.5404702887457092
 42
1.214093718638256
  0
ENDBLK
  5
716AC
330
716AA
100
AcDbEntity
  8
0
 62
    98
370
     0
100
AcDbBlockEnd
  0
BLOCK
  5
716AE
330
716AD
100
AcDbEntity
  8
0
 62
    98
370
     0
100
AcDbBlockBegin
  2
ROUNDE_2
 70
     0
 10
0.0
 20
0.0
 30
0.0
  3
ROUNDE_2
  1

  0
INSERT
  5
71456
330
716AD
100
AcDbEntity
  8
Level 26
 62
     7
370
    13
100
AcDbBlockReference
  2
SUBTRC
 10
0.0
 20
0.0
 30
0.0
  0
POINT
  5
71474
330
716AD
100
AcDbEntity
  8
Level 26
 62
     7
370
    13
100
AcDbPoint
 10
421.749889
 20
432.405556
 30
0.0
  0
LINE
  5
71475
330
716AD
100
AcDbEntity
  8
Level 26
 62
     7
370
    13
100
AcDbLine
 10
431.003133
 20
432.405556
 30
0.0
 11
421.749889
 21
432.405556
 31
0.0
  0
LINE
  5
71476
330
716AD
100
AcDbEntity
  8
Level 26
 62
     7
370
    13
100
AcDbLine
 10
427.79648
 20
427.355556
 30
0.0
 11
426.799889
 21
427.355556
 31
0.0
  0
POINT
  5
71477
330
716AD
100
AcDbEntity
  8
Level 26
 62
     7
370
    13
100
AcDbPoint
 10
426.799889
 20
427.355556
 30
0.0
  0
ARC
  5
71478
330
716AD
100
AcDbEntity
  8
Level 26
 62
     7
370
    13
100
AcDbCircle
 10
426.799889
 20
432.405556
 30
0.0
 40
5.049999999999999
100
AcDbArc
 50
180.0
 51
270.0
  0
ARC
  5
71479
330
716AD
100
AcDbEntity
  8
Level 26
 62
     7
370
    13
100
AcDbCircle
 10
426.799889
 20
432.405556
 30
0.0
 40
5.049999999999999
100
AcDbArc
 50
180.0
 51
270.0
  0
ENDBLK
  5
716AF
330
716AD
100
AcDbEntity
  8
0
 62
    98
370
     0
100
AcDbBlockEnd
  0
BLOCK
  5
716B1
330
716B0
100
AcDbEntity
  8
0
 62
    98
370
     0
100
AcDbBlockBegin
  2
SUBTRC
 70
     0
 10
0.0
 20
0.0
 30
0.0
  3
SUBTRC
  1

  0
INSERT
  5
71459
330
716B0
100
AcDbEntity
  8
Level 26
 62
     7
370
    13
100
AcDbBlockReference
  2
Feature Solid_4
 10
0.0
 20
0.0
 30
0.0
  0
ENDBLK
  5
716B2
330
716B0
100
AcDbEntity
  8
0
 62
    98
370
     0
100
AcDbBlockEnd
  0
BLOCK
  5
716B4
330
716B3
100
AcDbEntity
  8
0
 62
    98
370
     0
100
AcDbBlockBegin
  2
Feature Solid_4
 70
     0
 10
0.0
 20
0.0
 30
0.0
  3
Feature Solid_4
  1

  0
INSERT
  5
7145A
330
716B3
100
AcDbEntity
  8
Level 26
 62
     7
370
    13
100
AcDbBlockReference
  2
SUBTRC_1
 10
0.0
 20
0.0
 30
0.0
  0
ENDBLK
  5
716B5
330
716B3
100
AcDbEntity
  8
0
 62
    98
370
     0
100
AcDbBlockEnd
  0
BLOCK
  5
716B7
330
716B6
100
AcDbEntity
  8
0
 62
    98
370
     0
100
AcDbBlockBegin
  2
SUBTRC_1
 70
     0
 10
0.0
 20
0.0
 30
0.0
  3
SUBTRC_1
  1

  0
INSERT
  5
7145D
330
716B6
100
AcDbEntity
  8
Level 26
 62
     7
370
    13
100
AcDbBlockReference
  2
Feature Solid_5
 10
0.0
 20
0.0
 30
0.0
  0
ENDBLK
  5
716B8
330
716B6
100
AcDbEntity
  8
0
 62
    98
370
     0
100
AcDbBlockEnd
  0
BLOCK
  5
716BA
330
716B9
100
AcDbEntity
  8
0
 62
    98
370
     0
100
AcDbBlockBegin
  2
Feature Solid_5
 70
     0
 10
0.0
 20
0.0
 30
0.0
  3
Feature Solid_5
  1

  0
INSERT
  5
7145E
330
716B9
100
AcDbEntity
  8
Level 26
 62
     7
370
    13
100
AcDbBlockReference
  2
UNITE_3
 10
0.0
 20
0.0
 30
0.0
  0
ENDBLK
  5
716BB
330
716B9
100
AcDbEntity
  8
0
 62
    98
370
     0
100
AcDbBlockEnd
  0
BLOCK
  5
716BD
330
716BC
100
AcDbEntity
  8
0
 62
    98
370
     0
100
AcDbBlockBegin
  2
UNITE_3
 70
     0
 10
0.0
 20
0.0
 30
0.0
  3
UNITE_3
  1

  0
INSERT
  5
7145F
330
716BC
100
AcDbEntity
  8
Level 26
 62
     7
370
    13
100
AcDbBlockReference
  2
Feature Solid_6
 10
0.0
 20
0.0
 30
0.0
  0
INSERT
  5
71471
330
716BC
100
AcDbEntity
  8
Level 26
 62
     7
370
    13
100
AcDbBlockReference
  2
Feature Solid_11
 10
0.0
 20
0.0
 30
0.0
  0
ENDBLK
  5
716BE
330
716BC
100
AcDbEntity
  8
0
 62
    98
370
     0
100
AcDbBlockEnd
  0
BLOCK
  5
716C0
330
716BF
100
AcDbEntity
  8
0
 62
    98
370
     0
100
AcDbBlockBegin
  2
Feature Solid_6
 70
     0
 10
0.0
 20
0.0
 30
0.0
  3
Feature Solid_6
  1

  0
INSERT
  5
71460
330
716BF
100
AcDbEntity
  8
Level 26
 62
     7
370
    13
100
AcDbBlockReference
  2
SUBTRC_2
 10
0.0
 20
0.0
 30
0.0
  0
ENDBLK
  5
716C1
330
716BF
100
AcDbEntity
  8
0
 62
    98
370
     0
100
AcDbBlockEnd
  0
BLOCK
  5
716C3
330
716C2
100
AcDbEntity
  8
0
 62
    98
370
     0
100
AcDbBlockBegin
  2
SUBTRC_2
 70
     0
 10
0.0
 20
0.0
 30
0.0
  3
SUBTRC_2
  1

  0
INSERT
  5
71463
330
716C2
100
AcDbEntity
  8
Level 26
 62
     7
370
    13
100
AcDbBlockReference
  2
Feature Solid_7
 10
0.0
 20
0.0
 30
0.0
  0
ENDBLK
  5
716C4
330
716C2
100
AcDbEntity
  8
0
 62
    98
370
     0
100
AcDbBlockEnd
  0
BLOCK
  5
716C6
330
716C5
100
AcDbEntity
  8
0
 62
    98
370
     0
100
AcDbBlockBegin
  2
Feature Solid_7
 70
     0
 10
0.0
 20
0.0
 30
0.0
  3
Feature Solid_7
  1

  0
INSERT
  5
71464
330
716C5
100
AcDbEntity
  8
Level 26
 62
     7
370
    13
100
AcDbBlockReference
  2
ROUNDE_3
 10
0.0
 20
0.0
 30
0.0
  0
ENDBLK
  5
716C7
330
716C5
100
AcDbEntity
  8
0
 62
    98
370
     0
100
AcDbBlockEnd
  0
BLOCK
  5
716C9
330
716C8
100
AcDbEntity
  8
0
 62
    98
370
     0
100
AcDbBlockBegin
  2
ROUNDE_3
 70
     0
 10
0.0
 20
0.0
 30
0.0
  3
ROUNDE_3
  1

  0
INSERT
  5
71465
330
716C8
100
AcDbEntity
  8
Level 26
 62
     7
370
    13
100
AcDbBlockReference
  2
SUBTRC_3
 10
0.0
 20
0.0
 30
0.0
  0
ENDBLK
  5
716CA
330
716C8
100
AcDbEntity
  8
0
 62
    98
370
     0
100
AcDbBlockEnd
  0
BLOCK
  5
716CC
330
716CB
100
AcDbEntity
  8
0
 62
    98
370
     0
100
AcDbBlockBegin
  2
SUBTRC_3
 70
     0
 10
0.0
 20
0.0
 30
0.0
  3
SUBTRC_3
  1

  0
INSERT
  5
71468
330
716CB
100
AcDbEntity
  8
Level 26
 62
     7
370
    13
100
AcDbBlockReference
  2
Feature Solid_8
 10
0.0
 20
0.0
 30
0.0
  0
ENDBLK
  5
716CD
330
716CB
100
AcDbEntity
  8
0
 62
    98
370
     0
100
AcDbBlockEnd
  0
BLOCK
  5
716CF
330
716CE
100
AcDbEntity
  8
0
 62
    98
370
     0
100
AcDbBlockBegin
  2
Feature Solid_8
 70
     0
 10
0.0
 20
0.0
 30
0.0
  3
Feature Solid_8
  1

  0
INSERT
  5
71469
330
716CE
100
AcDbEntity
  8
Level 26
 62
     7
370
    13
100
AcDbBlockReference
  2
UNITE_4
 10
0.0
 20
0.0
 30
0.0
  0
ENDBLK
  5
716D0
330
716CE
100
AcDbEntity
  8
0
 62
    98
370
     0
100
AcDbBlockEnd
  0
BLOCK
  5
716D2
330
716D1
100
AcDbEntity
  8
0
 62
    98
370
     0
100
AcDbBlockBegin
  2
UNITE_4
 70
     0
 10
0.0
 20
0.0
 30
0.0
  3
UNITE_4
  1

  0
INSERT
  5
7146A
330
716D1
100
AcDbEntity
  8
Level 26
 62
     7
370
    13
100
AcDbBlockReference
  2
Feature Solid_9
 10
0.0
 20
0.0
 30
0.0
  0
INSERT
  5
7146E
330
716D1
100
AcDbEntity
  8
Level 26
 62
     7
370
    13
100
AcDbBlockReference
  2
Feature Solid_10
 10
69.639333
 20
974.850445
 30
0.0
 50
270.0
  0
ENDBLK
  5
716D3
330
716D1
100
AcDbEntity
  8
0
 62
    98
370
     0
100
AcDbBlockEnd
  0
BLOCK
  5
716D5
330
716D4
100
AcDbEntity
  8
0
 62
    98
370
     0
100
AcDbBlockBegin
  2
Feature Solid_9
 70
     0
 10
0.0
 20
0.0
 30
0.0
  3
Feature Solid_9
  1

  0
INSERT
  5
7146B
330
716D4
100
AcDbEntity
  8
Level 26
 62
     7
370
    13
100
AcDbBlockReference
  2
SLAB
 10
0.0
 20
0.0
 30
0.0
  0
ENDBLK
  5
716D6
330
716D4
100
AcDbEntity
  8
0
 62
    98
370
     0
100
AcDbBlockEnd
  0
BLOCK
  5
716D8
330
716D7
100
AcDbEntity
  8
0
 62
    98
370
     0
100
AcDbBlockBegin
  2
SLAB
 70
     0
 10
0.0
 20
0.0
 30
0.0
  3
SLAB
  1

  0
LINE
  5
7146C
330
716D7
100
AcDbEntity
  8
Level 26
 62
     7
370
    13
100
AcDbLine
 10
426.799889
 20
427.355556
 30
0.0
 11
460.574692
 21
427.355556
 31
0.0
  0
POINT
  5
7146D
330
716D7
100
AcDbEntity
  8
Level 26
 62
     7
370
    13
100
AcDbPoint
 10
460.574692
 20
427.355556
 30
0.0
  0
ENDBLK
  5
716D9
330
716D7
100
AcDbEntity
  8
0
 62
    98
370
     0
100
AcDbBlockEnd
  0
BLOCK
  5
716DB
330
716DA
100
AcDbEntity
  8
0
 62
    98
370
     0
100
AcDbBlockBegin
  2
Feature Solid_10
 70
     0
 10
0.0
 20
0.0
 30
0.0
  3
Feature Solid_10
  1

  0
INSERT
  5
7146F
330
716DA
100
AcDbEntity
  8
Level 26
 62
     7
370
    13
100
AcDbBlockReference
  2
CONE
 10
0.0
 20
0.0
 30
0.0
  0
ENDBLK
  5
716DC
330
716DA
100
AcDbEntity
  8
0
 62
    98
370
     0
100
AcDbBlockEnd
  0
BLOCK
  5
716DE
330
716DD
100
AcDbEntity
  8
0
 62
    98
370
     0
100
AcDbBlockBegin
  2
CONE
 70
     0
 10
0.0
 20
0.0
 30
0.0
  3
CONE
  1

  0
LINE
  5
71470
330
716DD
100
AcDbEntity
  8
Level 26
 62
     7
370
    13
100
AcDbLine
 10
547.494889
 20
390.93536
 30
0.0
 11
541.434889
 21
401.431588
 31
0.0
  0
ENDBLK
  5
716DF
330
716DD
100
AcDbEntity
  8
0
 62
    98
370
     0
100
AcDbBlockEnd
  0
BLOCK
  5
716E1
330
716E0
100
AcDbEntity
  8
0
 62
    98
370
     0
100
AcDbBlockBegin
  2
Feature Solid_11
 70
     0
 10
0.0
 20
0.0
 30
0.0
  3
Feature Solid_11
  1

  0
INSERT
  5
71472
330
716E0
100
AcDbEntity
  8
Level 26
 62
     7
370
    13
100
AcDbBlockReference
  2
DDREVL
 10
0.0
 20
0.0
 30
0.0
  0
ENDBLK
  5
716E2
330
716E0
100
AcDbEntity
  8
0
 62
    98
370
     0
100
AcDbBlockEnd
  0
BLOCK
  5
716E4
330
716E3
100
AcDbEntity
  8
0
 62
    98
370
     0
100
AcDbBlockBegin
  2
DDREVL
 70
     0
 10
0.0
 20
0.0
 30
0.0
  3
DDREVL
  1

  0
LINE
  5
71473
330
716E3
100
AcDbEntity
  8
Level 26
 62
     7
370
    13
100
AcDbLine
 10
471.07092
 20
433.415556
 30
0.0
 11
471.07092
 21
433.415556
 31
0.0
  0
ENDBLK
  5
716E5
330
716E3
100
AcDbEntity
  8
0
 62
    98
370
     0
100
AcDbBlockEnd
  0
BLOCK
  5
716E7
330
716E6
100
AcDbEntity
  8
0
 62
    98
370
     0
100
AcDbBlockBegin
  2
Feature Solid_12
 70
     0
 10
0.0
 20
0.0
 30
0.0
  3
Feature Solid_12
  1

  0
INSERT
  5
71498
330
716E6
100
AcDbEntity
  8
Level 26
 62
     7
370
    13
100
AcDbBlockReference
  2
UNITE_5
 10
-753.095703
 20
918.341112
 30
0.0
 50
180.0
210
0.0
220
0.0
230
-1.0
  0
ENDBLK
  5
716E8
330
716E6
100
AcDbEntity
  8
0
 62
    98
370
     0
100
AcDbBlockEnd
  0
BLOCK
  5
716EA
330
716E9
100
AcDbEntity
  8
0
 62
    98
370
     0
100
AcDbBlockBegin
  2
UNITE_5
 70
     0
 10
0.0
 20
0.0
 30
0.0
  3
UNITE_5
  1

  0
INSERT
  5
71499
330
716E9
100
AcDbEntity
  8
Level 26
 62
     7
370
    13
100
AcDbBlockReference
  2
Feature Solid_13
 10
0.0
 20
0.0
 30
0.0
  0
INSERT
  5
714A1
330
716E9
100
AcDbEntity
  8
Level 26
 62
     7
370
    13
100
AcDbBlockReference
  2
Feature Solid_14
 10
0.0
 20
0.0
 30
0.0
  0
ENDBLK
  5
716EB
330
716E9
100
AcDbEntity
  8
0
 62
    98
370
     0
100
AcDbBlockEnd
  0
BLOCK
  5
716ED
330
716EC
100
AcDbEntity
  8
0
 62
    98
370
     0
100
AcDbBlockBegin
  2
Feature Solid_13
 70
     0
 10
0.0
 20
0.0
 30
0.0
  3
Feature Solid_13
  1

  0
INSERT
  5
7149A
330
716EC
100
AcDbEntity
  8
Level 26
 62
     7
370
    13
100
AcDbBlockReference
  2
DDREVL_1
 10
0.0
 20
0.0
 30
0.0
  0
ENDBLK
  5
716EE
330
716EC
100
AcDbEntity
  8
0
 62
    98
370
     0
100
AcDbBlockEnd
  0
BLOCK
  5
716F0
330
716EF
100
AcDbEntity
  8
0
 62
    98
370
     0
100
AcDbBlockBegin
  2
DDREVL_1
 70
     0
 10
0.0
 20
0.0
 30
0.0
  3
DDREVL_1
  1

  0
ARC
  5
7149B
330
716EF
100
AcDbEntity
  8
Level 26
 62
     7
370
    13
100
AcDbCircle
 10
-515.679889
 20
459.170556
 30
0.0
 40
51.5100000000034
210
0.0
220
0.0
230
-1.0
100
AcDbArc
 50
0.0
 51
359.999994
  0
ARC
  5
7149C
330
716EF
100
AcDbEntity
  8
Level 26
 62
     7
370
    13
100
AcDbCircle
 10
-515.679889
 20
459.170556
 30
0.0
 40
74.04684558398081
210
0.0
220
0.0
230
-1.0
100
AcDbArc
 50
0.0
 51
359.999994
  0
LINE
  5
7149D
330
716EF
100
AcDbEntity
  8
Level 26
 62
     7
370
    13
100
AcDbLine
 10
515.679889
 20
510.680556
 30
0.0
 11
515.679889
 21
533.217402
 31
0.0
  0
LINE
  5
7149E
330
716EF
100
AcDbEntity
  8
Level 26
 62
     7
370
    13
100
AcDbLine
 10
567.189889
 20
459.170556
 30
0.0
 11
589.726734
 21
459.170556
 31
0.0
  0
LINE
  5
7149F
330
716EF
100
AcDbEntity
  8
Level 26
 62
     7
370
    13
100
AcDbLine
 10
515.679889
 20
407.660556
 30
0.0
 11
515.679889
 21
385.123711
 31
0.0
  0
LINE
  5
714A0
330
716EF
100
AcDbEntity
  8
Level 26
 62
     7
370
    13
100
AcDbLine
 10
464.169889
 20
459.170556
 30
0.0
 11
441.633043
 21
459.170556
 31
0.0
  0
ENDBLK
  5
716F1
330
716EF
100
AcDbEntity
  8
0
 62
    98
370
     0
100
AcDbBlockEnd
  0
BLOCK
  5
716F3
330
716F2
100
AcDbEntity
  8
0
 62
    98
370
     0
100
AcDbBlockBegin
  2
Feature Solid_14
 70
     0
 10
0.0
 20
0.0
 30
0.0
  3
Feature Solid_14
  1

  0
INSERT
  5
714A2
330
716F2
100
AcDbEntity
  8
Level 26
 62
     7
370
    13
100
AcDbBlockReference
  2
ROUNDE_4
 10
0.0
 20
0.0
 30
0.0
  0
ENDBLK
  5
716F4
330
716F2
100
AcDbEntity
  8
0
 62
    98
370
     0
100
AcDbBlockEnd
  0
BLOCK
  5
716F6
330
716F5
100
AcDbEntity
  8
0
 62
    98
370
     0
100
AcDbBlockBegin
  2
ROUNDE_4
 70
     0
 10
0.0
 20
0.0
 30
0.0
  3
ROUNDE_4
  1

  0
INSERT
  5
714A3
330
716F5
100
AcDbEntity
  8
Level 26
 62
     7
370
    13
100
AcDbBlockReference
  2
ROUNDE_5
 10
0.0
 20
0.0
 30
0.0
  0
SPLINE
  5
714FF
330
716F5
100
AcDbEntity
  8
Level 26
 62
     7
370
    13
100
AcDbSpline
210
0.0
220
0.0
230
1.0
 70
     8
 71
     3
 72
    24
 73
    20
 74
     0
 42
0.000000001
 43
0.0000000001
 40
0.0
 40
0.0
 40
0.0
 40
0.0
 40
0.1249999999999999
 40
0.1249999999999999
 40
0.2499999999999997
 40
0.2499999999999997
 40
0.3749999999999996
 40
0.3749999999999996
 40
0.4999999999999995
 40
0.4999999999999995
 40
0.6249999999999993
 40
0.6249999999999993
 40
0.7499999999999992
 40
0.7499999999999992
 40
0.8749999999999989
 40
0.8749999999999989
 40
0.9374999999999996
 40
0.9374999999999996
 40
1.0
 40
1.0
 40
1.0
 40
1.0
 10
461.2498241587391
 20
427.3555561754242
 30
0.0
 10
461.7801534765844
 20
427.3555561754242
 30
0.0
 10
462.3278052910864
 20
427.1894214704944
 30
0.0
 10
463.4806525247172
 20
426.5388250760012
 30
0.0
 10
464.090889191199
 20
426.0485455131819
 30
0.0
 10
465.3663621581682
 20
424.759790284038
 30
0.0
 10
466.0232587748541
 20
423.971842448126
 30
0.0
 10
467.3951718370804
 20
422.1240933969975
 30
0.0
 10
468.1175885779184
 20
421.0508662993665
 30
0.0
 10
469.6063098218364
 20
418.7098492197491
 30
0.0
 10
470.3723271069898
 20
417.4429261974226
 30
0.0
 10
472.0035764647163
 20
414.7508776481412
 30
0.0
 10
472.8729293226674
 20
413.3148738618078
 30
0.0
 10
474.7663465166465
 20
410.4540457321013
 30
0.0
 10
475.80153055669
 20
409.0005592279429
 30
0.0
 10
477.6466863433161
 20
407.0043312918902
 30
0.0
 10
478.3048818663246
 20
406.3793505046371
 30
0.0
 10
479.7515639489479
 20
405.260644442053
 30
0.0
 10
480.5445250727907
 20
404.7688223927174
 30
0.0
 10
481.3880726398938
 20
404.3847405900633
 30
0.0
  0
LINE
  5
71502
330
716F5
100
AcDbEntity
  8
Level 26
 62
     7
370
    13
100
AcDbLine
 10
461.249824
 20
427.355556
 30
0.0
 11
460.574692
 21
427.355556
 31
0.0
  0
SPLINE
  5
71503
330
716F5
100
AcDbEntity
  8
Level 26
 62
     7
370
    13
100
AcDbSpline
210
0.0
220
0.0
230
1.0
 70
     8
 71
     3
 72
    22
 73
    18
 74
     0
 42
0.000000001
 43
0.0000000001
 40
0.0
 40
0.0
 40
0.0
 40
0.0
 40
0.1250000000000001
 40
0.1250000000000001
 40
0.2500000000000002
 40
0.2500000000000002
 40
0.3750000000000003
 40
0.3750000000000003
 40
0.5000000000000005
 40
0.5000000000000005
 40
0.6250000000000004
 40
0.6250000000000004
 40
0.7500000000000002
 40
0.7500000000000002
 40
0.8750000000000001
 40
0.8750000000000001
 40
1.0
 40
1.0
 40
1.0
 40
1.0
 10
494.7550696414301
 20
412.102179907163
 30
0.0
 10
492.8514949507712
 20
412.948437187604
 30
0.0
 10
491.0263121883572
 20
413.8977838814458
 30
0.0
 10
487.530966229167
 20
415.9842052152534
 30
0.0
 10
485.8416483023761
 20
417.1377189676272
 30
0.0
 10
482.7501793335227
 20
419.5130949053968
 30
0.0
 10
481.3402082716861
 20
420.735743831092
 30
0.0
 10
478.7689715915471
 20
423.1978908623423
 30
0.0
 10
477.6192726630084
 20
424.4292201585754
 30
0.0
 10
475.645050908934
 20
426.7239433456337
 30
0.0
 10
474.7961983149462
 20
427.8139236371572
 30
0.0
 10
473.3829907567874
 20
429.747997350084
 30
0.0
 10
472.8207218412048
 20
430.5864514574375
 30
0.0
 10
471.9282717503793
 20
431.9721142985163
 30
0.0
 10
471.6021961568517
 20
432.5132678879485
 30
0.0
 10
471.1763735450504
 20
433.2304108873703
 30
0.0
 10
471.0709202188513
 20
433.4155561753976
 30
0.0
 10
471.0709202188513
 20
433.4155561753972
 30
0.0
  0
LINE
  5
71506
330
716F5
100
AcDbEntity
  8
Level 26
 62
     7
370
    13
100
AcDbLine
 10
460.574692
 20
427.355556
 30
0.0
 11
471.07092
 21
433.415556
 31
0.0
  0
LINE
  5
71507
330
716F5
100
AcDbEntity
  8
Level 26
 62
     7
370
    13
100
AcDbLine
 10
481.388073
 20
404.384741
 30
0.0
 11
494.75507
 21
412.10218
 31
0.0
  0
ENDBLK
  5
716F7
330
716F5
100
AcDbEntity
  8
0
 62
    98
370
     0
100
AcDbBlockEnd
  0
BLOCK
  5
716F9
330
716F8
100
AcDbEntity
  8
0
 62
    98
370
     0
100
AcDbBlockBegin
  2
ROUNDE_5
 70
     0
 10
0.0
 20
0.0
 30
0.0
  3
ROUNDE_5
  1

  0
INSERT
  5
714A4
330
716F8
100
AcDbEntity
  8
Level 26
 62
     7
370
    13
100
AcDbBlockReference
  2
ROUNDE_6
 10
0.0
 20
0.0
 30
0.0
  0
SPLINE
  5
714E7
330
716F8
100
AcDbEntity
  8
Level 26
 62
     7
370
    13
100
AcDbSpline
210
0.0
220
0.0
230
1.0
 70
     8
 71
     3
 72
    14
 73
    10
 74
     0
 42
0.000000001
 43
0.0000000001
 40
0.0
 40
0.0
 40
0.0
 40
0.0
 40
0.25
 40
0.25
 40
0.5
 40
0.5
 40
0.75
 40
0.75
 40
1.0
 40
1.0
 40
1.0
 40
1.0
 10
442.336901154209
 20
439.0631410505328
 30
0.0
 10
441.2499092766829
 20
442.3076467275087
 30
0.0
 10
440.4014552052021
 20
445.6366104749156
 30
0.0
 10
439.2655130050816
 20
452.3620766595684
 30
0.0
 10
438.9742344758433
 20
455.7600979178361
 30
0.0
 10
438.9771194205023
 20
462.6317250935477
 30
0.0
 10
439.2748100928701
 20
466.0530451862877
 30
0.0
 10
440.4117632688057
 20
472.7462359417849
 30
0.0
 10
441.2508293147757
 20
476.0362117973076
 30
0.0
 10
442.336901154209
 20
479.2779713003062
 30
0.0
  0
SPLINE
  5
714EA
330
716F8
100
AcDbEntity
  8
Level 26
 62
     7
370
    13
100
AcDbSpline
210
0.0
220
0.0
230
1.0
 70
     8
 71
     3
 72
    10
 73
     6
 74
     0
 42
0.000000001
 43
0.0000000001
 40
0.0
 40
0.0
 40
0.0
 40
0.0
 40
0.5
 40
0.5
 40
1.0
 40
1.0
 40
1.0
 40
1.0
 10
431.0031330221181
 20
485.9355561754148
 30
0.0
 10
429.745822085727
 20
477.0766111475224
 30
0.0
 10
429.0955534508002
 20
468.1478412683246
 30
0.0
 10
429.094920469191
 20
450.2065303194154
 30
0.0
 10
429.7455682993568
 20
441.2662893683793
 30
0.0
 10
431.0031330221181
 20
432.4055561754241
 30
0.0
  0
SPLINE
  5
714ED
330
716F8
100
AcDbEntity
  8
Level 26
 62
     7
370
    13
100
AcDbSpline
210
0.0
220
0.0
230
1.0
 70
     8
 71
     3
 72
    10
 73
     6
 74
     0
 42
0.000000001
 43
0.0000000001
 40
0.0
 40
0.0
 40
0.0
 40
0.0
 40
0.5
 40
0.5
 40
1.0
 40
1.0
 40
1.0
 40
1.0
 10
507.7431907767504
 20
397.0555561754242
 30
0.0
 10
503.1935701783449
 20
397.5337145519432
 30
0.0
 10
498.6662530939092
 20
398.3993119062585
 30
0.0
 10
489.8515622729473
 20
400.8804762929961
 30
0.0
 10
485.5507501042411
 20
402.4894015164584
 30
0.0
 10
481.3880726398897
 20
404.3847405900652
 30
0.0
  0
SPLINE
  5
714F0
330
716F8
100
AcDbEntity
  8
Level 26
 62
     7
370
    13
100
AcDbSpline
210
0.0
220
0.0
230
1.0
 70
    24
 71
     3
 72
    16
 73
    12
 74
     0
 42
0.000000001
 43
0.0000000001
 40
0.0
 40
0.0
 40
0.0
 40
0.0
 40
0.2499999999999986
 40
0.2499999999999986
 40
0.3749999999999982
 40
0.3749999999999982
 40
0.4999999999999979
 40
0.4999999999999979
 40
0.749999999999999
 40
0.749999999999999
 40
1.0
 40
1.0
 40
1.0
 40
1.0
 10
461.2498241587391
 20
427.3555561754242
 30
0.0
 10
457.4956294249518
 20
427.3555561754242
 30
0.0
 10
453.8521075398362
 20
427.3555561754242
 30
0.0
 10
448.6990803471358
 20
427.3555561754242
 30
0.0
 10
447.0289193884768
 20
427.3555561754242
 30
0.0
 10
443.7942813138293
 20
427.3555561754242
 30
0.0
 10
442.2225745750665
 20
427.3555561754242
 30
0.0
 10
437.7605294288323
 20
427.3555561754242
 30
0.0
 10
435.1022329370639
 20
427.3555561754242
 30
0.0
 10
430.7352053517847
 20
427.3555561754242
 30
0.0
 10
428.9818763304538
 20
427.3555561754242
 30
0.0
 10
427.7964800754525
 20
427.3555561754242
 30
0.0
  0
SPLINE
  5
714F3
330
716F8
100
AcDbEntity
  8
Level 26
 62
     7
370
    13
100
AcDbSpline
210
0.0
220
0.0
230
1.0
 70
     8
 71
     3
 72
    18
 73
    14
 74
     0
 42
0.000000001
 43
0.0000000001
 40
0.0
 40
0.0
 40
0.0
 40
0.0
 40
0.2500000000000013
 40
0.2500000000000013
 40
0.5000000000000027
 40
0.5000000000000027
 40
0.625000000000002
 40
0.625000000000002
 40
0.7500000000000014
 40
0.7500000000000014
 40
0.8750000000000007
 40
0.8750000000000007
 40
1.0
 40
1.0
 40
1.0
 40
1.0
 10
427.7964800754525
 20
427.3555561754242
 30
0.0
 10
428.1536055644937
 20
427.3555561754242
 30
0.0
 10
428.6420332971438
 20
427.3582460970706
 30
0.0
 10
429.7327101668193
 20
427.4432367999935
 30
0.0
 10
430.3348168836309
 20
427.5202377139743
 30
0.0
 10
431.1443107899276
 20
427.9053044495717
 30
0.0
 10
431.4026924257614
 20
428.0827944787731
 30
0.0
 10
431.8502092355751
 20
428.5924916414967
 30
0.0
 10
432.045930195868
 20
428.9266263939798
 30
0.0
 10
432.2466865980027
 20
429.8154081079447
 30
0.0
 10
432.2274664272217
 20
430.3876556238038
 30
0.0
 10
431.7931926155315
 20
431.4979001417704
 30
0.0
 10
431.4096045370324
 20
431.9964166946276
 30
0.0
 10
431.0031330221181
 20
432.4055561754241
 30
0.0
  0
SPLINE
  5
714F6
330
716F8
100
AcDbEntity
  8
Level 26
 62
     7
370
    13
100
AcDbSpline
210
0.0
220
0.0
230
1.0
 70
     8
 71
     3
 72
    18
 73
    14
 74
     0
 42
0.000000001
 43
0.0000000001
 40
0.0
 40
0.0
 40
0.0
 40
0.0
 40
0.2500000000000007
 40
0.2500000000000007
 40
0.5000000000000014
 40
0.5000000000000014
 40
0.625000000000001
 40
0.625000000000001
 40
0.7500000000000007
 40
0.7500000000000007
 40
0.8750000000000003
 40
0.8750000000000003
 40
1.0
 40
1.0
 40
1.0
 40
1.0
 10
442.336901154209
 20
439.0631410505333
 30
0.0
 10
443.1967505675852
 20
436.4966211337637
 30
0.0
 10
444.0400868290549
 20
433.9054712516944
 30
0.0
 10
445.6422716797701
 20
428.7652007034737
 30
0.0
 10
446.4006967233417
 20
426.2064137738859
 30
0.0
 10
447.4923302078359
 20
422.5566312331412
 30
0.0
 10
447.8454432914295
 20
421.3860749941085
 30
0.0
 10
448.5480701447126
 20
419.1950708173489
 30
0.0
 10
448.9035956503449
 20
418.1570219037089
 30
0.0
 10
449.6281394894013
 20
416.3750047218478
 30
0.0
 10
449.9991355971542
 20
415.6239813067694
 30
0.0
 10
450.8108912960551
 20
414.5163701215138
 30
0.0
 10
451.2297901167271
 20
414.194552870287
 30
0.0
 10
451.76173629912
 20
413.9939284174968
 30
0.0
  0
SPLINE
  5
714F9
330
716F8
100
AcDbEntity
  8
Level 26
 62
     7
370
    13
100
AcDbSpline
210
0.0
220
0.0
230
1.0
 70
     8
 71
     3
 72
    20
 73
    16
 74
     0
 42
0.000000001
 43
0.0000000001
 40
0.0
 40
0.0
 40
0.0
 40
0.0
 40
0.0624999999999999
 40
0.0624999999999999
 40
0.1249999999999997
 40
0.1249999999999997
 40
0.25
 40
0.25
 40
0.3750000000000003
 40
0.3750000000000003
 40
0.5000000000000006
 40
0.5000000000000006
 40
0.7500000000000004
 40
0.7500000000000004
 40
1.0
 40
1.0
 40
1.0
 40
1.0
 10
451.76173629912
 20
413.9939284174968
 30
0.0
 10
452.2785077335948
 20
413.7990271479854
 30
0.0
 10
453.0037623830248
 20
413.5235935661647
 30
0.0
 10
454.6629256408623
 20
412.88438022316
 30
0.0
 10
455.6119206688663
 20
412.5148286382262
 30
0.0
 10
458.6755494195222
 20
411.3079815305722
 30
0.0
 10
460.9461647425814
 20
410.3951803165524
 30
0.0
 10
465.563103541147
 20
408.53958191923
 30
0.0
 10
467.9542262581699
 20
407.5802546270205
 30
0.0
 10
472.7549870273583
 20
405.7134063770281
 30
0.0
 10
475.1683675443792
 20
404.8046117980899
 30
0.0
 10
482.457326815158
 20
402.2246599983326
 30
0.0
 10
487.3824938878042
 20
400.7046270843795
 30
0.0
 10
497.4161869253626
 20
398.3375830830894
 30
0.0
 10
502.5245256486014
 20
397.4879773642201
 30
0.0
 10
507.7431907767131
 20
397.0555561754242
 30
0.0
  0
ELLIPSE
  5
714FC
330
716F8
100
AcDbEntity
  8
Level 26
 62
     7
370
    13
100
AcDbEllipse
 10
427.79648
 20
397.055556
 30
0.0
 11
0.0
 21
30.30000000000005
 31
0.0
210
0.0
220
0.0
230
-1.0
 40
0.9539045718304091
 41
0.0000000000000036
 42
0.9775902890469803
  0
ELLIPSE
  5
714FD
330
716F8
100
AcDbEntity
  8
Level 26
 62
     7
370
    13
100
AcDbEllipse
 10
418.052966
 20
432.405556
 30
0.0
 11
28.05443211839422
 21
11.44721968490216
 31
0.0
210
0.0
220
0.0
230
1.0
 40
0.1758217249114039
 41
-1.16394104508646
 42
-0.6004811796356293
  0
ELLIPSE
  5
714FE
330
716F8
100
AcDbEntity
  8
Level 26
 62
     7
370
    13
100
AcDbEllipse
 10
423.366343
 20
406.367613
 30
0.0
 11
30.16462650409882
 21
2.860997705035565
 31
0.0
210
0.0
220
0.0
230
-1.0
 40
0.7542389838019897
 41
5.06909158854133
 42
5.742715018433877
  0
ENDBLK
  5
716FA
330
716F8
100
AcDbEntity
  8
0
 62
    98
370
     0
100
AcDbBlockEnd
  0
BLOCK
  5
716FC
330
716FB
100
AcDbEntity
  8
0
 62
    98
370
     0
100
AcDbBlockBegin
  2
ROUNDE_6
 70
     0
 10
0.0
 20
0.0
 30
0.0
  3
ROUNDE_6
  1

  0
INSERT
  5
714A5
330
716FB
100
AcDbEntity
  8
Level 26
 62
     7
370
    13
100
AcDbBlockReference
  2
SUBTRC_4
 10
0.0
 20
0.0
 30
0.0
  0
LINE
  5
714DD
330
716FB
100
AcDbEntity
  8
Level 26
 62
     7
370
    13
100
AcDbLine
 10
421.749889
 20
485.935556
 30
0.0
 11
421.749889
 21
432.405556
 31
0.0
  0
LINE
  5
714DE
330
716FB
100
AcDbEntity
  8
Level 26
 62
     7
370
    13
100
AcDbLine
 10
426.799889
 20
490.985556
 30
0.0
 11
426.799889
 21
427.355556
 31
0.0
  0
POINT
  5
714DF
330
716FB
100
AcDbEntity
  8
Level 26
 62
     7
370
    13
100
AcDbPoint
 10
421.749889
 20
432.405556
 30
0.0
  0
LINE
  5
714E0
330
716FB
100
AcDbEntity
  8
Level 26
 62
     7
370
    13
100
AcDbLine
 10
431.003133
 20
432.405556
 30
0.0
 11
421.749889
 21
432.405556
 31
0.0
  0
LINE
  5
714E1
330
716FB
100
AcDbEntity
  8
Level 26
 62
     7
370
    13
100
AcDbLine
 10
427.79648
 20
427.355556
 30
0.0
 11
426.799889
 21
427.355556
 31
0.0
  0
POINT
  5
714E2
330
716FB
100
AcDbEntity
  8
Level 26
 62
     7
370
    13
100
AcDbPoint
 10
426.799889
 20
427.355556
 30
0.0
  0
ARC
  5
714E3
330
716FB
100
AcDbEntity
  8
Level 26
 62
     7
370
    13
100
AcDbCircle
 10
426.799889
 20
432.405556
 30
0.0
 40
5.050000000000004
100
AcDbArc
 50
180.0
 51
270.0
  0
ARC
  5
714E4
330
716FB
100
AcDbEntity
  8
Level 26
 62
     7
370
    13
100
AcDbCircle
 10
426.799889
 20
432.405556
 30
0.0
 40
5.049999999999999
100
AcDbArc
 50
180.0
 51
270.0
  0
LINE
  5
714E5
330
716FB
100
AcDbEntity
  8
Level 26
 62
     7
370
    13
100
AcDbLine
 10
426.799889
 20
459.170556
 30
0.0
 11
421.749889
 21
459.170556
 31
0.0
  0
ARC
  5
714E6
330
716FB
100
AcDbEntity
  8
Level 26
 62
     7
370
    13
100
AcDbCircle
 10
-426.799889
 20
432.405556
 30
0.0
 40
5.050000000000001
210
0.0
220
0.0
230
-1.0
100
AcDbArc
 50
270.0
 51
0.0
  0
ENDBLK
  5
716FD
330
716FB
100
AcDbEntity
  8
0
 62
    98
370
     0
100
AcDbBlockEnd
  0
BLOCK
  5
716FF
330
716FE
100
AcDbEntity
  8
0
 62
    98
370
     0
100
AcDbBlockBegin
  2
SUBTRC_4
 70
     0
 10
0.0
 20
0.0
 30
0.0
  3
SUBTRC_4
  1

  0
INSERT
  5
714A8
330
716FE
100
AcDbEntity
  8
Level 26
 62
     7
370
    13
100
AcDbBlockReference
  2
Feature Solid_15
 10
0.0
 20
0.0
 30
0.0
  0
ENDBLK
  5
71700
330
716FE
100
AcDbEntity
  8
0
 62
    98
370
     0
100
AcDbBlockEnd
  0
BLOCK
  5
71702
330
71701
100
AcDbEntity
  8
0
 62
    98
370
     0
100
AcDbBlockBegin
  2
Feature Solid_15
 70
     0
 10
0.0
 20
0.0
 30
0.0
  3
Feature Solid_15
  1

  0
INSERT
  5
714A9
330
71701
100
AcDbEntity
  8
Level 26
 62
     7
370
    13
100
AcDbBlockReference
  2
SUBTRC_5
 10
0.0
 20
0.0
 30
0.0
  0
ENDBLK
  5
71703
330
71701
100
AcDbEntity
  8
0
 62
    98
370
     0
100
AcDbBlockEnd
  0
BLOCK
  5
71705
330
71704
100
AcDbEntity
  8
0
 62
    98
370
     0
100
AcDbBlockBegin
  2
SUBTRC_5
 70
     0
 10
0.0
 20
0.0
 30
0.0
  3
SUBTRC_5
  1

  0
INSERT
  5
714AC
330
71704
100
AcDbEntity
  8
Level 26
 62
     7
370
    13
100
AcDbBlockReference
  2
Feature Solid_16
 10
0.0
 20
0.0
 30
0.0
  0
ENDBLK
  5
71706
330
71704
100
AcDbEntity
  8
0
 62
    98
370
     0
100
AcDbBlockEnd
  0
BLOCK
  5
71708
330
71707
100
AcDbEntity
  8
0
 62
    98
370
     0
100
AcDbBlockBegin
  2
Feature Solid_16
 70
     0
 10
0.0
 20
0.0
 30
0.0
  3
Feature Solid_16
  1

  0
INSERT
  5
714AD
330
71707
100
AcDbEntity
  8
Level 26
 62
     7
370
    13
100
AcDbBlockReference
  2
UNITE_6
 10
0.0
 20
0.0
 30
0.0
  0
ENDBLK
  5
71709
330
71707
100
AcDbEntity
  8
0
 62
    98
370
     0
100
AcDbBlockEnd
  0
BLOCK
  5
7170B
330
7170A
100
AcDbEntity
  8
0
 62
    98
370
     0
100
AcDbBlockBegin
  2
UNITE_6
 70
     0
 10
0.0
 20
0.0
 30
0.0
  3
UNITE_6
  1

  0
INSERT
  5
714AE
330
7170A
100
AcDbEntity
  8
Level 26
 62
     7
370
    13
100
AcDbBlockReference
  2
Feature Solid_17
 10
0.0
 20
0.0
 30
0.0
  0
INSERT
  5
714CD
330
7170A
100
AcDbEntity
  8
Level 26
 62
     7
370
    13
100
AcDbBlockReference
  2
Feature Solid_23
 10
0.0
 20
0.0
 30
0.0
  0
ENDBLK
  5
7170C
330
7170A
100
AcDbEntity
  8
0
 62
    98
370
     0
100
AcDbBlockEnd
  0
BLOCK
  5
7170E
330
7170D
100
AcDbEntity
  8
0
 62
    98
370
     0
100
AcDbBlockBegin
  2
Feature Solid_17
 70
     0
 10
0.0
 20
0.0
 30
0.0
  3
Feature Solid_17
  1

  0
INSERT
  5
714AF
330
7170D
100
AcDbEntity
  8
Level 26
 62
     7
370
    13
100
AcDbBlockReference
  2
SUBTRC_6
 10
0.0
 20
0.0
 30
0.0
  0
ENDBLK
  5
7170F
330
7170D
100
AcDbEntity
  8
0
 62
    98
370
     0
100
AcDbBlockEnd
  0
BLOCK
  5
71711
330
71710
100
AcDbEntity
  8
0
 62
    98
370
     0
100
AcDbBlockBegin
  2
SUBTRC_6
 70
     0
 10
0.0
 20
0.0
 30
0.0
  3
SUBTRC_6
  1

  0
INSERT
  5
714B2
330
71710
100
AcDbEntity
  8
Level 26
 62
     7
370
    13
100
AcDbBlockReference
  2
Feature Solid_18
 10
0.0
 20
0.0
 30
0.0
  0
ENDBLK
  5
71712
330
71710
100
AcDbEntity
  8
0
 62
    98
370
     0
100
AcDbBlockEnd
  0
BLOCK
  5
71714
330
71713
100
AcDbEntity
  8
0
 62
    98
370
     0
100
AcDbBlockBegin
  2
Feature Solid_18
 70
     0
 10
0.0
 20
0.0
 30
0.0
  3
Feature Solid_18
  1

  0
INSERT
  5
714B3
330
71713
100
AcDbEntity
  8
Level 26
 62
     7
370
    13
100
AcDbBlockReference
  2
ROUNDE_7
 10
0.0
 20
0.0
 30
0.0
  0
ENDBLK
  5
71715
330
71713
100
AcDbEntity
  8
0
 62
    98
370
     0
100
AcDbBlockEnd
  0
BLOCK
  5
71717
330
71716
100
AcDbEntity
  8
0
 62
    98
370
     0
100
AcDbBlockBegin
  2
ROUNDE_7
 70
     0
 10
0.0
 20
0.0
 30
0.0
  3
ROUNDE_7
  1

  0
INSERT
  5
714B4
330
71716
100
AcDbEntity
  8
Level 26
 62
     7
370
    13
100
AcDbBlockReference
  2
SUBTRC_7
 10
0.0
 20
0.0
 30
0.0
  0
LINE
  5
714CC
330
71716
100
AcDbEntity
  8
Level 26
 62
     7
370
    13
100
AcDbLine
 10
421.749889
 20
485.935556
 30
0.0
 11
421.749889
 21
432.405556
 31
0.0
  0
ENDBLK
  5
71718
330
71716
100
AcDbEntity
  8
0
 62
    98
370
     0
100
AcDbBlockEnd
  0
BLOCK
  5
7171A
330
71719
100
AcDbEntity
  8
0
 62
    98
370
     0
100
AcDbBlockBegin
  2
SUBTRC_7
 70
     0
 10
0.0
 20
0.0
 30
0.0
  3
SUBTRC_7
  1

  0
INSERT
  5
714B5
330
71719
100
AcDbEntity
  8
Level 26
 62
     7
370
    13
100
AcDbBlockReference
  2
Feature Solid_19
 10
0.0
 20
0.0
 30
0.0
  0
INSERT
  5
714BF
330
71719
100
AcDbEntity
  8
Level 26
 62
     7
370
    13
100
AcDbBlockReference
  2
Feature Solid_20
 10
0.0
 20
0.0
 30
0.0
  0
ENDBLK
  5
7171B
330
71719
100
AcDbEntity
  8
0
 62
    98
370
     0
100
AcDbBlockEnd
  0
BLOCK
  5
7171D
330
7171C
100
AcDbEntity
  8
0
 62
    98
370
     0
100
AcDbBlockBegin
  2
Feature Solid_19
 70
     0
 10
0.0
 20
0.0
 30
0.0
  3
Feature Solid_19
  1

  0
INSERT
  5
714B6
330
7171C
100
AcDbEntity
  8
Level 26
 62
     7
370
    13
100
AcDbBlockReference
  2
CONE_1
 10
0.0
 20
0.0
 30
0.0
  0
ENDBLK
  5
7171E
330
7171C
100
AcDbEntity
  8
0
 62
    98
370
     0
100
AcDbBlockEnd
  0
BLOCK
  5
71720
330
7171F
100
AcDbEntity
  8
0
 62
    98
370
     0
100
AcDbBlockBegin
  2
CONE_1
 70
     0
 10
0.0
 20
0.0
 30
0.0
  3
CONE_1
  1

  0
LINE
  5
714B7
330
7171F
100
AcDbEntity
  8
Level 26
 62
     7
370
    13
100
AcDbLine
 10
421.749889
 20
437.455556
 30
0.0
 11
421.749889
 21
480.885556
 31
0.0
  0
SPLINE
  5
714B8
330
7171F
100
AcDbEntity
  8
Level 26
 62
     7
370
    13
100
AcDbSpline
210
0.0
220
0.0
230
1.0
 70
     9
 71
     3
 72
    62
 73
    58
 74
     0
 42
0.000000001
 43
0.0000000001
 40
0.0
 40
0.0
 40
0.0
 40
0.0
 40
0.03125
 40
0.03125
 40
0.0625
 40
0.0625
 40
0.0937499999999999
 40
0.0937499999999999
 40
0.1249999999999999
 40
0.1249999999999999
 40
0.1874999999999999
 40
0.1874999999999999
 40
0.2187499999999999
 40
0.2187499999999999
 40
0.2499999999999999
 40
0.2499999999999999
 40
0.2812499999999999
 40
0.2812499999999999
 40
0.3125
 40
0.3125
 40
0.34375
 40
0.34375
 40
0.375
 40
0.375
 40
0.40625
 40
0.40625
 40
0.4375000000000001
 40
0.4375000000000001
 40
0.5
 40
0.5
 40
0.53125
 40
0.53125
 40
0.5625
 40
0.5625
 40
0.59375
 40
0.59375
 40
0.625
 40
0.625
 40
0.65625
 40
0.65625
 40
0.6874999999999999
 40
0.6874999999999999
 40
0.7187499999999999
 40
0.7187499999999999
 40
0.7499999999999999
 40
0.7499999999999999
 40
0.8124999999999998
 40
0.8124999999999998
 40
0.8437499999999998
 40
0.8437499999999998
 40
0.8749999999999998
 40
0.8749999999999998
 40
0.9374999999999998
 40
0.9374999999999998
 40
0.9687499999999998
 40
0.9687499999999998
 40
1.0
 40
1.0
 40
1.0
 40
1.0
 10
464.1698887677789
 20
459.1705561754153
 30
0.0
 10
464.1698887677789
 20
460.6230397339793
 30
0.0
 10
464.2311639602184
 20
462.0480911739184
 30
0.0
 10
464.4643157658243
 20
464.8465207694814
 30
0.0
 10
464.6392506227789
 20
466.2345537094599
 30
0.0
 10
465.0714957808218
 20
468.8575248802066
 30
0.0
 10
465.3279751312361
 20
470.0986502299397
 30
0.0
 10
465.8954188591614
 20
472.4462860026112
 30
0.0
 10
466.2047153023445
 20
473.5427540279332
 30
0.0
 10
467.1313217404486
 20
476.5086005224506
 30
0.0
 10
467.765616357587
 20
478.1151977556352
 30
0.0
 10
468.4551097578442
 20
479.7484462218526
 30
0.0
 10
468.645903486155
 20
480.1748629624512
 30
0.0
 10
468.9027604896387
 20
480.7408353837685
 30
0.0
 10
468.9698993318415
 20
480.8836165626351
 30
0.0
 10
468.9716847056411
 20
480.8874569159443
 30
0.0
 10
468.9039310200028
 20
480.7433327766228
 30
0.0
 10
468.6493663634805
 20
480.1825735913147
 30
0.0
 10
468.4626440265738
 20
479.7659152874773
 30
0.0
 10
467.9976694396587
 20
478.6652471924838
 30
0.0
 10
467.7262125399484
 20
477.9966662738029
 30
0.0
 10
467.1411451556569
 20
476.4323015610026
 30
0.0
 10
466.8245669328534
 20
475.5264465257651
 30
0.0
 10
466.2052870585917
 20
473.5448876890567
 30
0.0
 10
465.9006519799641
 20
472.4657474648621
 30
0.0
 10
465.3329805587941
 20
470.1215086635038
 30
0.0
 10
465.0721474267952
 20
468.8598231996264
 30
0.0
 10
464.4269290642255
 20
464.9494261372195
 30
0.0
 10
464.1715221406107
 20
462.0612760476762
 30
0.0
 10
464.1690845413432
 20
457.7690760861206
 30
0.0
 10
464.2296311461628
 20
456.3163213383392
 30
0.0
 10
464.4634010381996
 20
453.5007192745925
 30
0.0
 10
464.634548749324
 20
452.1397756761195
 30
0.0
 10
465.066748973049
 20
449.5078085253886
 30
0.0
 10
465.3275393541453
 20
448.2451475188116
 30
0.0
 10
465.8916946559661
 20
445.9093581574921
 30
0.0
 10
466.1993434084766
 20
444.8160948920077
 30
0.0
 10
466.8230946541093
 20
442.8185349937546
 30
0.0
 10
467.1336072357148
 20
441.9300024754106
 30
0.0
 10
467.7182788318396
 20
440.3646497940164
 30
0.0
 10
467.9950199510381
 20
439.6824673416087
 30
0.0
 10
468.4566898868047
 20
438.5889671232462
 30
0.0
 10
468.64331260683
 20
438.172035160385
 30
0.0
 10
468.9010502790847
 20
437.6039697182993
 30
0.0
 10
468.970152641229
 20
437.4569509169682
 30
0.0
 10
468.9720837283507
 20
437.4527971352957
 30
0.0
 10
468.6913269235751
 20
438.0339805828659
 30
0.0
 10
468.0006781057827
 20
439.6686873254678
 30
0.0
 10
467.7244222168028
 20
440.3489300332133
 30
0.0
 10
467.1383402948154
 20
441.9166159122311
 30
0.0
 10
466.8275626913682
 20
442.8053347471993
 30
0.0
 10
465.8930040408072
 20
445.7949533454472
 30
0.0
 10
465.2920950917191
 20
448.1458080395632
 30
0.0
 10
464.6376761782875
 20
452.1156773869874
 30
0.0
 10
464.4664387362113
 20
453.4759345629796
 30
0.0
 10
464.2324802974612
 20
456.2704973600353
 30
0.0
 10
464.1698887677789
 20
457.7180726168509
 30
0.0
 10
464.1698887677789
 20
459.1705561754153
 30
0.0
  0
LINE
  5
714BB
330
7171F
100
AcDbEntity
  8
Level 26
 62
     7
370
    13
100
AcDbLine
 10
421.749889
 20
437.455556
 30
0.0
 11
468.945475
 21
437.455556
 31
0.0
  0
LINE
  5
714BC
330
7171F
100
AcDbEntity
  8
Level 26
 62
     7
370
    13
100
AcDbLine
 10
421.749889
 20
459.170556
 30
0.0
 11
464.188629
 21
459.170556
 31
0.0
  0
LINE
  5
714BD
330
7171F
100
AcDbEntity
  8
Level 26
 62
     7
370
    13
100
AcDbLine
 10
421.749889
 20
480.885556
 30
0.0
 11
468.934417
 21
480.885556
 31
0.0
  0
LINE
  5
714BE
330
7171F
100
AcDbEntity
  8
Level 26
 62
     7
370
    13
100
AcDbLine
 10
421.749889
 20
459.170556
 30
0.0
 11
464.169889
 21
459.170556
 31
0.0
  0
ENDBLK
  5
71721
330
7171F
100
AcDbEntity
  8
0
 62
    98
370
     0
100
AcDbBlockEnd
  0
BLOCK
  5
71723
330
71722
100
AcDbEntity
  8
0
 62
    98
370
     0
100
AcDbBlockBegin
  2
Feature Solid_20
 70
     0
 10
0.0
 20
0.0
 30
0.0
  3
Feature Solid_20
  1

  0
INSERT
  5
714C0
330
71722
100
AcDbEntity
  8
Level 26
 62
     7
370
    13
100
AcDbBlockReference
  2
UNITE_7
 10
0.0
 20
0.0
 30
0.0
  0
ENDBLK
  5
71724
330
71722
100
AcDbEntity
  8
0
 62
    98
370
     0
100
AcDbBlockEnd
  0
BLOCK
  5
71726
330
71725
100
AcDbEntity
  8
0
 62
    98
370
     0
100
AcDbBlockBegin
  2
UNITE_7
 70
     0
 10
0.0
 20
0.0
 30
0.0
  3
UNITE_7
  1

  0
INSERT
  5
714C1
330
71725
100
AcDbEntity
  8
Level 26
 62
     7
370
    13
100
AcDbBlockReference
  2
Feature Solid_21
 10
0.0
 20
0.0
 30
0.0
  0
INSERT
  5
714C5
330
71725
100
AcDbEntity
  8
Level 26
 62
     7
370
    13
100
AcDbBlockReference
  2
Feature Solid_22
 10
69.639333
 20
974.850445
 30
0.0
 50
270.0
  0
ENDBLK
  5
71727
330
71725
100
AcDbEntity
  8
0
 62
    98
370
     0
100
AcDbBlockEnd
  0
BLOCK
  5
71729
330
71728
100
AcDbEntity
  8
0
 62
    98
370
     0
100
AcDbBlockBegin
  2
Feature Solid_21
 70
     0
 10
0.0
 20
0.0
 30
0.0
  3
Feature Solid_21
  1

  0
INSERT
  5
714C2
330
71728
100
AcDbEntity
  8
Level 26
 62
     7
370
    13
100
AcDbBlockReference
  2
SLAB_1
 10
0.0
 20
0.0
 30
0.0
  0
ENDBLK
  5
7172A
330
71728
100
AcDbEntity
  8
0
 62
    98
370
     0
100
AcDbBlockEnd
  0
BLOCK
  5
7172C
330
7172B
100
AcDbEntity
  8
0
 62
    98
370
     0
100
AcDbBlockBegin
  2
SLAB_1
 70
     0
 10
0.0
 20
0.0
 30
0.0
  3
SLAB_1
  1

  0
LINE
  5
714C3
330
7172B
100
AcDbEntity
  8
Level 26
 62
     7
370
    13
100
AcDbLine
 10
426.799889
 20
427.355556
 30
0.0
 11
460.574692
 21
427.355556
 31
0.0
  0
POINT
  5
714C4
330
7172B
100
AcDbEntity
  8
Level 26
 62
     7
370
    13
100
AcDbPoint
 10
460.574692
 20
427.355556
 30
0.0
  0
ENDBLK
  5
7172D
330
7172B
100
AcDbEntity
  8
0
 62
    98
370
     0
100
AcDbBlockEnd
  0
BLOCK
  5
7172F
330
7172E
100
AcDbEntity
  8
0
 62
    98
370
     0
100
AcDbBlockBegin
  2
Feature Solid_22
 70
     0
 10
0.0
 20
0.0
 30
0.0
  3
Feature Solid_22
  1

  0
INSERT
  5
714C6
330
7172E
100
AcDbEntity
  8
Level 26
 62
     7
370
    13
100
AcDbBlockReference
  2
CONE_2
 10
0.0
 20
0.0
 30
0.0
  0
ENDBLK
  5
71730
330
7172E
100
AcDbEntity
  8
0
 62
    98
370
     0
100
AcDbBlockEnd
  0
BLOCK
  5
71732
330
71731
100
AcDbEntity
  8
0
 62
    98
370
     0
100
AcDbBlockBegin
  2
CONE_2
 70
     0
 10
0.0
 20
0.0
 30
0.0
  3
CONE_2
  1

  0
SPLINE
  5
714C7
330
71731
100
AcDbEntity
  8
Level 26
 62
     7
370
    13
100
AcDbSpline
210
0.0
220
0.0
230
1.0
 70
     8
 71
     3
 72
    26
 73
    22
 74
     0
 42
0.000000001
 43
0.0000000001
 40
0.0
 40
0.0
 40
0.0
 40
0.0
 40
0.1249999999999999
 40
0.1249999999999999
 40
0.2499999999999997
 40
0.2499999999999997
 40
0.3124999999999996
 40
0.3124999999999996
 40
0.3749999999999996
 40
0.3749999999999996
 40
0.4999999999999997
 40
0.4999999999999997
 40
0.5624999999999997
 40
0.5624999999999997
 40
0.6249999999999999
 40
0.6249999999999999
 40
0.7499999999999999
 40
0.7499999999999999
 40
0.8749999999999998
 40
0.8749999999999998
 40
1.0
 40
1.0
 40
1.0
 40
1.0
 10
489.9248887677601
 20
401.4315876264904
 30
0.0
 10
491.3630757589386
 20
400.6012499799876
 30
0.0
 10
493.0022650816277
 20
399.7467436066304
 30
0.0
 10
496.7115423330431
 20
398.1073366743622
 30
0.0
 10
498.7638284476376
 20
397.3336933729943
 30
0.0
 10
502.0515356411952
 20
396.3529726030638
 30
0.0
 10
503.1874563805283
 20
396.0537480220719
 30
0.0
 10
505.5464797608786
 20
395.5226793573238
 30
0.0
 10
506.7780655053509
 20
395.2901393929533
 30
0.0
 10
510.4918534362976
 20
394.731365640424
 30
0.0
 10
513.0233203802206
 20
394.5339164378529
 30
0.0
 10
516.909212645552
 20
394.5289394179618
 30
0.0
 10
518.2149611170706
 20
394.5770720406022
 30
0.0
 10
520.766613558981
 20
394.7663714231548
 30
0.0
 10
522.0237989189289
 20
394.9073537671789
 30
0.0
 10
525.7412216537818
 20
395.4606429818755
 30
0.0
 10
528.1448039069259
 20
396.0083139876274
 30
0.0
 10
532.5663353298333
 20
397.3225175216421
 30
0.0
 10
534.637915503194
 20
398.1035037638767
 30
0.0
 10
538.3369203341081
 20
399.7369203331841
 30
0.0
 10
539.9923060481901
 20
400.598712104987
 30
0.0
 10
541.4348887678166
 20
401.4315876264941
 30
0.0
  0
LINE
  5
714CA
330
71731
100
AcDbEntity
  8
Level 26
 62
     7
370
    13
100
AcDbLine
 10
547.494889
 20
390.93536
 30
0.0
 11
541.434889
 21
401.431588
 31
0.0
  0
LINE
  5
714CB
330
71731
100
AcDbEntity
  8
Level 26
 62
     7
370
    13
100
AcDbLine
 10
515.679889
 20
357.160556
 30
0.0
 11
515.679889
 21
394.573707
 31
0.0
  0
ENDBLK
  5
71733
330
71731
100
AcDbEntity
  8
0
 62
    98
370
     0
100
AcDbBlockEnd
  0
BLOCK
  5
71735
330
71734
100
AcDbEntity
  8
0
 62
    98
370
     0
100
AcDbBlockBegin
  2
Feature Solid_23
 70
     0
 10
0.0
 20
0.0
 30
0.0
  3
Feature Solid_23
  1

  0
INSERT
  5
714CE
330
71734
100
AcDbEntity
  8
Level 26
 62
     7
370
    13
100
AcDbBlockReference
  2
DDREVL_2
 10
0.0
 20
0.0
 30
0.0
  0
ENDBLK
  5
71736
330
71734
100
AcDbEntity
  8
0
 62
    98
370
     0
100
AcDbBlockEnd
  0
BLOCK
  5
71738
330
71737
100
AcDbEntity
  8
0
 62
    98
370
     0
100
AcDbBlockBegin
  2
DDREVL_2
 70
     0
 10
0.0
 20
0.0
 30
0.0
  3
DDREVL_2
  1

  0
ARC
  5
714CF
330
71737
100
AcDbEntity
  8
Level 26
 62
     7
370
    13
100
AcDbCircle
 10
-515.679889
 20
459.170556
 30
0.0
 40
51.51000000000893
210
0.0
220
0.0
230
-1.0
100
AcDbArc
 50
66.031879
 51
293.968121
  0
ARC
  5
714D0
330
71737
100
AcDbEntity
  8
Level 26
 62
     7
370
    13
100
AcDbCircle
 10
-515.679889
 20
459.170556
 30
0.0
 40
62.62000000000902
210
0.0
220
0.0
230
-1.0
100
AcDbArc
 50
82.71853
 51
277.28147
  0
LINE
  5
714D1
330
71737
100
AcDbEntity
  8
Level 26
 62
     7
370
    13
100
AcDbLine
 10
471.07092
 20
433.415556
 30
0.0
 11
471.07092
 21
433.415556
 31
0.0
  0
POINT
  5
714D2
330
71737
100
AcDbEntity
  8
Level 26
 62
     7
370
    13
100
AcDbPoint
 10
515.679889
 20
510.680556
 30
0.0
  0
POINT
  5
714D3
330
71737
100
AcDbEntity
  8
Level 26
 62
     7
370
    13
100
AcDbPoint
 10
464.169889
 20
459.170556
 30
0.0
  0
POINT
  5
714D4
330
71737
100
AcDbEntity
  8
Level 26
 62
     7
370
    13
100
AcDbPoint
 10
464.169889
 20
459.170556
 30
0.0
  0
POINT
  5
714D5
330
71737
100
AcDbEntity
  8
Level 26
 62
     7
370
    13
100
AcDbPoint
 10
515.679889
 20
407.660556
 30
0.0
  0
POINT
  5
714D6
330
71737
100
AcDbEntity
  8
Level 26
 62
     7
370
    13
100
AcDbPoint
 10
567.189889
 20
459.170556
 30
0.0
  0
ARC
  5
714D7
330
71737
100
AcDbEntity
  8
Level 26
 62
     7
370
    13
100
AcDbCircle
 10
-515.679889
 20
459.170556
 30
0.0
 40
78.78000000000908
210
0.0
220
0.0
230
-1.0
100
AcDbArc
 50
33.871143
 51
90.0
  0
ARC
  5
714D8
330
71737
100
AcDbEntity
  8
Level 26
 62
     7
370
    13
100
AcDbCircle
 10
-515.679889
 20
459.170556
 30
0.0
 40
78.78000000000908
210
0.0
220
0.0
230
-1.0
100
AcDbArc
 50
90.0
 51
326.128272
  0
LINE
  5
714D9
330
71737
100
AcDbEntity
  8
Level 26
 62
     7
370
    13
100
AcDbLine
 10
441.633043
 20
459.170556
 30
0.0
 11
438.97878
 21
459.170556
 31
0.0
  0
LINE
  5
714DA
330
71737
100
AcDbEntity
  8
Level 26
 62
     7
370
    13
100
AcDbLine
 10
515.679889
 20
396.550556
 30
0.0
 11
515.679889
 21
380.390556
 31
0.0
  0
LINE
  5
714DB
330
71737
100
AcDbEntity
  8
Level 26
 62
     7
370
    13
100
AcDbLine
 10
578.299889
 20
459.170556
 30
0.0
 11
594.459889
 21
459.170556
 31
0.0
  0
LINE
  5
714DC
330
71737
100
AcDbEntity
  8
Level 26
 62
     7
370
    13
100
AcDbLine
 10
515.679889
 20
537.950556
 30
0.0
 11
515.679889
 21
521.790556
 31
0.0
  0
ENDBLK
  5
71739
330
71737
100
AcDbEntity
  8
0
 62
    98
370
     0
100
AcDbBlockEnd
  0
BLOCK
  5
7173B
330
7173A
100
AcDbEntity
  8
0
 62
    98
370
     0
100
AcDbBlockBegin
  2
0_1
 70
     0
 10
0.0
 20
0.0
 30
0.0
  3
0_1
  1

  0
INSERT
  5
7150A
330
7173A
100
AcDbEntity
  8
Level 26
 62
     7
370
    13
100
AcDbBlockReference
  2
Feature Solid_24
 10
-0.000739
 20
0.000003
 30
0.0
 41
0.000098
 42
0.000098
 43
0.000098
 50
0.0
  0
ENDBLK
  5
7173C
330
7173A
100
AcDbEntity
  8
0
 62
    98
370
     0
100
AcDbBlockEnd
  0
BLOCK
  5
7173E
330
7173D
100
AcDbEntity
  8
0
 62
    98
370
     0
100
AcDbBlockBegin
  2
Feature Solid_24
 70
     0
 10
0.0
 20
0.0
 30
0.0
  3
Feature Solid_24
  1

  0
INSERT
  5
7150B
330
7173D
100
AcDbEntity
  8
Level 26
 62
     7
370
    13
100
AcDbBlockReference
  2
UNITE_8
 10
-1261.2375
 20
-459.1965
 30
0.0
  0
ENDBLK
  5
7173F
330
7173D
100
AcDbEntity
  8
0
 62
    98
370
     0
100
AcDbBlockEnd
  0
BLOCK
  5
71741
330
71740
100
AcDbEntity
  8
0
 62
    98
370
     0
100
AcDbBlockBegin
  2
UNITE_8
 70
     0
 10
0.0
 20
0.0
 30
0.0
  3
UNITE_8
  1

  0
INSERT
  5
7150C
330
71740
100
AcDbEntity
  8
Level 26
 62
     7
370
    13
100
AcDbBlockReference
  2
Feature Solid_25
 10
0.0
 20
0.0
 30
0.0
 50
0.0
  0
INSERT
  5
71557
330
71740
100
AcDbEntity
  8
Level 26
 62
     7
370
    13
100
AcDbBlockReference
  2
Feature Solid_36
 10
0.0
 20
0.0
 30
0.0
 50
0.0
  0
ENDBLK
  5
71742
330
71740
100
AcDbEntity
  8
0
 62
    98
370
     0
100
AcDbBlockEnd
  0
BLOCK
  5
71744
330
71743
100
AcDbEntity
  8
0
 62
    98
370
     0
100
AcDbBlockBegin
  2
Feature Solid_25
 70
     0
 10
0.0
 20
0.0
 30
0.0
  3
Feature Solid_25
  1

  0
INSERT
  5
7150D
330
71743
100
AcDbEntity
  8
Level 26
 62
     7
370
    13
100
AcDbBlockReference
  2
UNITE_9
 10
753.095703
 20
0.0
 30
0.0
 50
0.0
  0
ENDBLK
  5
71745
330
71743
100
AcDbEntity
  8
0
 62
    98
370
     0
100
AcDbBlockEnd
  0
BLOCK
  5
71747
330
71746
100
AcDbEntity
  8
0
 62
    98
370
     0
100
AcDbBlockBegin
  2
UNITE_9
 70
     0
 10
0.0
 20
0.0
 30
0.0
  3
UNITE_9
  1

  0
INSERT
  5
7150E
330
71746
100
AcDbEntity
  8
Level 26
 62
     7
370
    13
100
AcDbBlockReference
  2
Feature Solid_26
 10
0.0
 20
0.0
 30
0.0
 50
0.0
  0
ENDBLK
  5
71748
330
71746
100
AcDbEntity
  8
0
 62
    98
370
     0
100
AcDbBlockEnd
  0
BLOCK
  5
7174A
330
71749
100
AcDbEntity
  8
0
 62
    98
370
     0
100
AcDbBlockBegin
  2
Feature Solid_26
 70
     0
 10
0.0
 20
0.0
 30
0.0
  3
Feature Solid_26
  1

  0
INSERT
  5
7150F
330
71749
100
AcDbEntity
  8
Level 26
 62
     7
370
    13
100
AcDbBlockReference
  2
UNITE_10
 10
0.0
 20
0.0
 30
0.0
 50
0.0
  0
ENDBLK
  5
7174B
330
71749
100
AcDbEntity
  8
0
 62
    98
370
     0
100
AcDbBlockEnd
  0
BLOCK
  5
7174D
330
7174C
100
AcDbEntity
  8
0
 62
    98
370
     0
100
AcDbBlockBegin
  2
UNITE_10
 70
     0
 10
0.0
 20
0.0
 30
0.0
  3
UNITE_10
  1

  0
INSERT
  5
71512
330
7174C
100
AcDbEntity
  8
Level 26
 62
     7
370
    13
100
AcDbBlockReference
  2
Feature Solid_27
 10
0.0
 20
0.0
 30
0.0
 50
0.0
  0
ENDBLK
  5
7174E
330
7174C
100
AcDbEntity
  8
0
 62
    98
370
     0
100
AcDbBlockEnd
  0
BLOCK
  5
71750
330
7174F
100
AcDbEntity
  8
0
 62
    98
370
     0
100
AcDbBlockBegin
  2
Feature Solid_27
 70
     0
 10
0.0
 20
0.0
 30
0.0
  3
Feature Solid_27
  1

  0
INSERT
  5
71513
330
7174F
100
AcDbEntity
  8
Level 26
 62
     7
370
    13
100
AcDbBlockReference
  2
ROUNDE_8
 10
0.0
 20
0.0
 30
0.0
 50
0.0
  0
ENDBLK
  5
71751
330
7174F
100
AcDbEntity
  8
0
 62
    98
370
     0
100
AcDbBlockEnd
  0
BLOCK
  5
71753
330
71752
100
AcDbEntity
  8
0
 62
    98
370
     0
100
AcDbBlockBegin
  2
ROUNDE_8
 70
     0
 10
0.0
 20
0.0
 30
0.0
  3
ROUNDE_8
  1

  0
INSERT
  5
71514
330
71752
100
AcDbEntity
  8
Level 26
 62
     7
370
    13
100
AcDbBlockReference
  2
ROUNDE_9
 10
0.0
 20
0.0
 30
0.0
 50
0.0
  0
SPLINE
  5
7154C
330
71752
100
AcDbEntity
  8
Level 26
 62
     7
370
    13
100
AcDbSpline
210
0.0
220
0.0
230
1.0
 70
     8
 71
     3
 72
    24
 73
    20
 74
     0
 42
0.000000001
 43
0.0000000001
 40
0.0
 40
0.0
 40
0.0
 40
0.0
 40
0.125
 40
0.125
 40
0.25
 40
0.25
 40
0.3749999999999999
 40
0.3749999999999999
 40
0.5
 40
0.5
 40
0.625
 40
0.625
 40
0.7499999999999999
 40
0.7499999999999999
 40
0.8749999999999998
 40
0.8749999999999998
 40
0.9374999999999998
 40
0.9374999999999998
 40
1.0
 40
1.0
 40
1.0
 40
1.0
 10
461.2498241587372
 20
427.3555561754181
 30
0.0
 10
461.7801534765844
 20
427.3555561754181
 30
0.0
 10
462.3278052910864
 20
427.1894214704879
 30
0.0
 10
463.4806525247167
 20
426.5388250759946
 30
0.0
 10
464.090889191199
 20
426.0485455131759
 30
0.0
 10
465.3663621581658
 20
424.7597902840319
 30
0.0
 10
466.0232587748541
 20
423.97184244812
 30
0.0
 10
467.3951718370799
 20
422.1240933969914
 30
0.0
 10
468.1175885779184
 20
421.0508662993604
 30
0.0
 10
469.6063098218364
 20
418.7098492197431
 30
0.0
 10
470.3723271069898
 20
417.4429261974165
 30
0.0
 10
472.0035764647163
 20
414.7508776481346
 30
0.0
 10
472.8729293226674
 20
413.3148738618013
 30
0.0
 10
474.7663465166442
 20
410.4540457320949
 30
0.0
 10
475.8015305566877
 20
409.0005592279369
 30
0.0
 10
477.6466863433138
 20
407.0043312918837
 30
0.0
 10
478.3048818663246
 20
406.3793505046306
 30
0.0
 10
479.7515639489479
 20
405.2606444420469
 30
0.0
 10
480.5445250727907
 20
404.7688223927114
 30
0.0
 10
481.3880726398934
 20
404.3847405900568
 30
0.0
  0
LINE
  5
7154F
330
71752
100
AcDbEntity
  8
Level 26
 62
     7
370
    13
100
AcDbLine
 10
461.249824
 20
427.355556
 30
0.0
 11
460.574692
 21
427.355556
 31
0.0
  0
SPLINE
  5
71550
330
71752
100
AcDbEntity
  8
Level 26
 62
     7
370
    13
100
AcDbSpline
210
0.0
220
0.0
230
1.0
 70
     8
 71
     3
 72
    22
 73
    18
 74
     0
 42
0.000000001
 43
0.0000000001
 40
0.0
 40
0.0
 40
0.0
 40
0.0
 40
0.125
 40
0.125
 40
0.25
 40
0.25
 40
0.375
 40
0.375
 40
0.5
 40
0.5
 40
0.625
 40
0.625
 40
0.75
 40
0.75
 40
0.875
 40
0.875
 40
1.0
 40
1.0
 40
1.0
 40
1.0
 10
494.7550696414295
 20
412.102179907157
 30
0.0
 10
492.8514949507712
 20
412.948437187598
 30
0.0
 10
491.0263121883567
 20
413.8977838814398
 30
0.0
 10
487.5309662291665
 20
415.9842052152473
 30
0.0
 10
485.8416483023761
 20
417.1377189676212
 30
0.0
 10
482.7501793335208
 20
419.5130949053903
 30
0.0
 10
481.3402082716857
 20
420.7357438310859
 30
0.0
 10
478.7689715915453
 20
423.1978908623363
 30
0.0
 10
477.6192726630084
 20
424.4292201585694
 30
0.0
 10
475.645050908934
 20
426.7239433456277
 30
0.0
 10
474.7961983149462
 20
427.8139236371507
 30
0.0
 10
473.3829907567874
 20
429.7479973500776
 30
0.0
 10
472.820721841203
 20
430.5864514574315
 30
0.0
 10
471.9282717503774
 20
431.9721142985103
 30
0.0
 10
471.6021961568517
 20
432.5132678879424
 30
0.0
 10
471.1763735450504
 20
433.2304108873643
 30
0.0
 10
471.0709202188532
 20
433.4155561753911
 30
0.0
 10
471.0709202188513
 20
433.4155561753911
 30
0.0
  0
LINE
  5
71553
330
71752
100
AcDbEntity
  8
Level 26
 62
     7
370
    13
100
AcDbLine
 10
460.574692
 20
427.355556
 30
0.0
 11
471.07092
 21
433.415556
 31
0.0
  0
LINE
  5
71554
330
71752
100
AcDbEntity
  8
Level 26
 62
     7
370
    13
100
AcDbLine
 10
481.388073
 20
404.384741
 30
0.0
 11
494.75507
 21
412.10218
 31
0.0
  0
ENDBLK
  5
71754
330
71752
100
AcDbEntity
  8
0
 62
    98
370
     0
100
AcDbBlockEnd
  0
BLOCK
  5
71756
330
71755
100
AcDbEntity
  8
0
 62
    98
370
     0
100
AcDbBlockBegin
  2
ROUNDE_9
 70
     0
 10
0.0
 20
0.0
 30
0.0
  3
ROUNDE_9
  1

  0
INSERT
  5
71515
330
71755
100
AcDbEntity
  8
Level 26
 62
     7
370
    13
100
AcDbBlockReference
  2
ROUNDE_10
 10
0.0
 20
0.0
 30
0.0
 50
0.0
  0
SPLINE
  5
7153A
330
71755
100
AcDbEntity
  8
Level 26
 62
     7
370
    13
100
AcDbSpline
210
0.0
220
0.0
230
1.0
 70
     8
 71
     3
 72
    10
 73
     6
 74
     0
 42
0.000000001
 43
0.0000000001
 40
0.0
 40
0.0
 40
0.0
 40
0.0
 40
0.5
 40
0.5
 40
1.0
 40
1.0
 40
1.0
 40
1.0
 10
507.7431907767072
 20
397.0555561754182
 30
0.0
 10
503.1935701783299
 20
397.5337145521189
 30
0.0
 10
498.6662530938815
 20
398.3993119062586
 30
0.0
 10
489.8515622729323
 20
400.8804762929948
 30
0.0
 10
485.5507501042334
 20
402.4894015164552
 30
0.0
 10
481.3880726398897
 20
404.3847405900591
 30
0.0
  0
SPLINE
  5
7153D
330
71755
100
AcDbEntity
  8
Level 26
 62
     7
370
    13
100
AcDbSpline
210
0.0
220
0.0
230
1.0
 70
    24
 71
     3
 72
    16
 73
    12
 74
     0
 42
0.000000001
 43
0.0000000001
 40
0.0
 40
0.0
 40
0.0
 40
0.0
 40
0.2499999999999999
 40
0.2499999999999999
 40
0.3749999999999998
 40
0.3749999999999998
 40
0.4999999999999999
 40
0.4999999999999999
 40
0.75
 40
0.75
 40
1.0
 40
1.0
 40
1.0
 40
1.0
 10
461.2498241587372
 20
427.3555561754181
 30
0.0
 10
457.49562942495
 20
427.3555561754181
 30
0.0
 10
453.8521075398362
 20
427.3555561754181
 30
0.0
 10
448.6990803471335
 20
427.3555561754181
 30
0.0
 10
447.0289193884745
 20
427.3555561754181
 30
0.0
 10
443.7942813138288
 20
427.3555561754181
 30
0.0
 10
442.2225745750647
 20
427.3555561754181
 30
0.0
 10
437.7605294288319
 20
427.3555561754181
 30
0.0
 10
435.1022329370639
 20
427.3555561754181
 30
0.0
 10
430.7352053517847
 20
427.3555561754181
 30
0.0
 10
428.9818763304556
 20
427.3555561754181
 30
0.0
 10
427.7964800754521
 20
427.3555561754181
 30
0.0
  0
SPLINE
  5
71540
330
71755
100
AcDbEntity
  8
Level 26
 62
     7
370
    13
100
AcDbSpline
210
0.0
220
0.0
230
1.0
 70
     8
 71
     3
 72
    18
 73
    14
 74
     0
 42
0.000000001
 43
0.0000000001
 40
0.0
 40
0.0
 40
0.0
 40
0.0
 40
0.2500000000000014
 40
0.2500000000000014
 40
0.5000000000000029
 40
0.5000000000000029
 40
0.6250000000000022
 40
0.6250000000000022
 40
0.7500000000000015
 40
0.7500000000000015
 40
0.8750000000000007
 40
0.8750000000000007
 40
1.0
 40
1.0
 40
1.0
 40
1.0
 10
427.7964800754521
 20
427.3555561754181
 30
0.0
 10
428.1536055644933
 20
427.3555561754181
 30
0.0
 10
428.6420332971438
 20
427.3582460970645
 30
0.0
 10
429.7327101668193
 20
427.4432367999875
 30
0.0
 10
430.3348168836292
 20
427.5202377139684
 30
0.0
 10
431.1443107899276
 20
427.9053044495657
 30
0.0
 10
431.4026924257591
 20
428.082794478767
 30
0.0
 10
431.8502092355766
 20
428.5924916414907
 30
0.0
 10
432.0459301958676
 20
428.9266263939738
 30
0.0
 10
432.2466865980027
 20
429.8154081079387
 30
0.0
 10
432.2274664272199
 20
430.3876556237977
 30
0.0
 10
431.7931926155311
 20
431.4979001417644
 30
0.0
 10
431.4096045370324
 20
431.9964166946215
 30
0.0
 10
431.0031330221181
 20
432.4055561754181
 30
0.0
  0
SPLINE
  5
71543
330
71755
100
AcDbEntity
  8
Level 26
 62
     7
370
    13
100
AcDbSpline
210
0.0
220
0.0
230
1.0
 70
     8
 71
     3
 72
    18
 73
    14
 74
     0
 42
0.000000001
 43
0.0000000001
 40
0.0
 40
0.0
 40
0.0
 40
0.0
 40
0.2500000000000001
 40
0.2500000000000001
 40
0.5000000000000001
 40
0.5000000000000001
 40
0.6250000000000001
 40
0.6250000000000001
 40
0.7500000000000002
 40
0.7500000000000002
 40
0.8750000000000001
 40
0.8750000000000001
 40
1.0
 40
1.0
 40
1.0
 40
1.0
 10
442.3369011542085
 20
439.0631410505268
 30
0.0
 10
443.1967505675834
 20
436.4966211337577
 30
0.0
 10
444.0400868290549
 20
433.9054712516884
 30
0.0
 10
445.6422716797701
 20
428.7652007034677
 30
0.0
 10
446.4006967233417
 20
426.2064137738798
 30
0.0
 10
447.4923302078336
 20
422.5566312331352
 30
0.0
 10
447.8454432914291
 20
421.3860749941025
 30
0.0
 10
448.5480701447126
 20
419.1950708173429
 30
0.0
 10
448.9035956503449
 20
418.157021903703
 30
0.0
 10
449.6281394894008
 20
416.3750047218417
 30
0.0
 10
449.9991355971523
 20
415.6239813067633
 30
0.0
 10
450.8108912960551
 20
414.5163701215079
 30
0.0
 10
451.2297901167271
 20
414.194552870281
 30
0.0
 10
451.7617362991177
 20
413.9939284174907
 30
0.0
  0
SPLINE
  5
71546
330
71755
100
AcDbEntity
  8
Level 26
 62
     7
370
    13
100
AcDbSpline
210
0.0
220
0.0
230
1.0
 70
     8
 71
     3
 72
    20
 73
    16
 74
     0
 42
0.000000001
 43
0.0000000001
 40
0.0
 40
0.0
 40
0.0
 40
0.0
 40
0.0624999999999998
 40
0.0624999999999998
 40
0.1249999999999996
 40
0.1249999999999996
 40
0.2499999999999996
 40
0.2499999999999996
 40
0.3749999999999997
 40
0.3749999999999997
 40
0.4999999999999999
 40
0.4999999999999999
 40
0.75
 40
0.75
 40
1.0
 40
1.0
 40
1.0
 40
1.0
 10
451.7617362991177
 20
413.9939284174907
 30
0.0
 10
452.2785077335943
 20
413.799027147979
 30
0.0
 10
453.0037623830248
 20
413.5235935661587
 30
0.0
 10
454.6629256408623
 20
412.884380223154
 30
0.0
 10
455.6119206688663
 20
412.5148286382201
 30
0.0
 10
458.6755494195204
 20
411.3079815305662
 30
0.0
 10
460.9461647425814
 20
410.3951803165464
 30
0.0
 10
465.563103541147
 20
408.5395819192239
 30
0.0
 10
467.9542262581699
 20
407.5802546270145
 30
0.0
 10
472.7549870273583
 20
405.7134063770221
 30
0.0
 10
475.1683675443787
 20
404.8046117980834
 30
0.0
 10
482.457326815158
 20
402.2246599983265
 30
0.0
 10
487.3824938878042
 20
400.7046270843734
 30
0.0
 10
497.4161869253626
 20
398.3375830830834
 30
0.0
 10
502.5245256486014
 20
397.4879773642136
 30
0.0
 10
507.7431907767113
 20
397.0555561754177
 30
0.0
  0
ELLIPSE
  5
71549
330
71755
100
AcDbEntity
  8
Level 26
 62
     7
370
    13
100
AcDbEllipse
 10
427.79648
 20
397.055556
 30
0.0
 11
0.0
 21
30.30000000000001
 31
0.0
210
0.0
220
0.0
230
-1.0
 40
0.9539045718304084
 41
0.0000000000000133
 42
0.9775902890469891
  0
ELLIPSE
  5
7154A
330
71755
100
AcDbEntity
  8
Level 26
 62
     7
370
    13
100
AcDbEllipse
 10
418.052966
 20
432.405556
 30
0.0
 11
28.05443211839423
 21
11.44721968490218
 31
0.0
210
0.0
220
0.0
230
0.9999999999999998
 40
0.1758217249114037
 41
-1.163941045086461
 42
-0.6004811796356311
  0
ELLIPSE
  5
7154B
330
71755
100
AcDbEntity
  8
Level 26
 62
     7
370
    13
100
AcDbEllipse
 10
423.366343
 20
406.367613
 30
0.0
 11
30.16462650409884
 21
2.860997705035545
 31
0.0
210
0.0
220
0.0
230
1.0
 40
0.7542389838019893
 41
0.5404702887457092
 42
1.214093718638256
  0
ENDBLK
  5
71757
330
71755
100
AcDbEntity
  8
0
 62
    98
370
     0
100
AcDbBlockEnd
  0
BLOCK
  5
71759
330
71758
100
AcDbEntity
  8
0
 62
    98
370
     0
100
AcDbBlockBegin
  2
ROUNDE_10
 70
     0
 10
0.0
 20
0.0
 30
0.0
  3
ROUNDE_10
  1

  0
INSERT
  5
71516
330
71758
100
AcDbEntity
  8
Level 26
 62
     7
370
    13
100
AcDbBlockReference
  2
SUBTRC_8
 10
0.0
 20
0.0
 30
0.0
 50
0.0
  0
POINT
  5
71534
330
71758
100
AcDbEntity
  8
Level 26
 62
     7
370
    13
100
AcDbPoint
 10
421.749889
 20
432.405556
 30
0.0
  0
LINE
  5
71535
330
71758
100
AcDbEntity
  8
Level 26
 62
     7
370
    13
100
AcDbLine
 10
431.003133
 20
432.405556
 30
0.0
 11
421.749889
 21
432.405556
 31
0.0
  0
LINE
  5
71536
330
71758
100
AcDbEntity
  8
Level 26
 62
     7
370
    13
100
AcDbLine
 10
427.79648
 20
427.355556
 30
0.0
 11
426.799889
 21
427.355556
 31
0.0
  0
POINT
  5
71537
330
71758
100
AcDbEntity
  8
Level 26
 62
     7
370
    13
100
AcDbPoint
 10
426.799889
 20
427.355556
 30
0.0
  0
ARC
  5
71538
330
71758
100
AcDbEntity
  8
Level 26
 62
     7
370
    13
100
AcDbCircle
 10
426.799889
 20
432.405556
 30
0.0
 40
5.049999999999999
100
AcDbArc
 50
180.0
 51
270.0
  0
ARC
  5
71539
330
71758
100
AcDbEntity
  8
Level 26
 62
     7
370
    13
100
AcDbCircle
 10
426.799889
 20
432.405556
 30
0.0
 40
5.049999999999999
100
AcDbArc
 50
180.0
 51
270.0
  0
ENDBLK
  5
7175A
330
71758
100
AcDbEntity
  8
0
 62
    98
370
     0
100
AcDbBlockEnd
  0
BLOCK
  5
7175C
330
7175B
100
AcDbEntity
  8
0
 62
    98
370
     0
100
AcDbBlockBegin
  2
SUBTRC_8
 70
     0
 10
0.0
 20
0.0
 30
0.0
  3
SUBTRC_8
  1

  0
INSERT
  5
71519
330
7175B
100
AcDbEntity
  8
Level 26
 62
     7
370
    13
100
AcDbBlockReference
  2
Feature Solid_28
 10
0.0
 20
0.0
 30
0.0
 50
0.0
  0
ENDBLK
  5
7175D
330
7175B
100
AcDbEntity
  8
0
 62
    98
370
     0
100
AcDbBlockEnd
  0
BLOCK
  5
7175F
330
7175E
100
AcDbEntity
  8
0
 62
    98
370
     0
100
AcDbBlockBegin
  2
Feature Solid_28
 70
     0
 10
0.0
 20
0.0
 30
0.0
  3
Feature Solid_28
  1

  0
INSERT
  5
7151A
330
7175E
100
AcDbEntity
  8
Level 26
 62
     7
370
    13
100
AcDbBlockReference
  2
SUBTRC_9
 10
0.0
 20
0.0
 30
0.0
 50
0.0
  0
ENDBLK
  5
71760
330
7175E
100
AcDbEntity
  8
0
 62
    98
370
     0
100
AcDbBlockEnd
  0
BLOCK
  5
71762
330
71761
100
AcDbEntity
  8
0
 62
    98
370
     0
100
AcDbBlockBegin
  2
SUBTRC_9
 70
     0
 10
0.0
 20
0.0
 30
0.0
  3
SUBTRC_9
  1

  0
INSERT
  5
7151D
330
71761
100
AcDbEntity
  8
Level 26
 62
     7
370
    13
100
AcDbBlockReference
  2
Feature Solid_29
 10
0.0
 20
0.0
 30
0.0
 50
0.0
  0
ENDBLK
  5
71763
330
71761
100
AcDbEntity
  8
0
 62
    98
370
     0
100
AcDbBlockEnd
  0
BLOCK
  5
71765
330
71764
100
AcDbEntity
  8
0
 62
    98
370
     0
100
AcDbBlockBegin
  2
Feature Solid_29
 70
     0
 10
0.0
 20
0.0
 30
0.0
  3
Feature Solid_29
  1

  0
INSERT
  5
7151E
330
71764
100
AcDbEntity
  8
Level 26
 62
     7
370
    13
100
AcDbBlockReference
  2
UNITE_11
 10
0.0
 20
0.0
 30
0.0
 50
0.0
  0
ENDBLK
  5
71766
330
71764
100
AcDbEntity
  8
0
 62
    98
370
     0
100
AcDbBlockEnd
  0
BLOCK
  5
71768
330
71767
100
AcDbEntity
  8
0
 62
    98
370
     0
100
AcDbBlockBegin
  2
UNITE_11
 70
     0
 10
0.0
 20
0.0
 30
0.0
  3
UNITE_11
  1

  0
INSERT
  5
7151F
330
71767
100
AcDbEntity
  8
Level 26
 62
     7
370
    13
100
AcDbBlockReference
  2
Feature Solid_30
 10
0.0
 20
0.0
 30
0.0
 50
0.0
  0
INSERT
  5
71531
330
71767
100
AcDbEntity
  8
Level 26
 62
     7
370
    13
100
AcDbBlockReference
  2
Feature Solid_35
 10
0.0
 20
0.0
 30
0.0
 50
0.0
  0
ENDBLK
  5
71769
330
71767
100
AcDbEntity
  8
0
 62
    98
370
     0
100
AcDbBlockEnd
  0
BLOCK
  5
7176B
330
7176A
100
AcDbEntity
  8
0
 62
    98
370
     0
100
AcDbBlockBegin
  2
Feature Solid_30
 70
     0
 10
0.0
 20
0.0
 30
0.0
  3
Feature Solid_30
  1

  0
INSERT
  5
71520
330
7176A
100
AcDbEntity
  8
Level 26
 62
     7
370
    13
100
AcDbBlockReference
  2
SUBTRC_10
 10
0.0
 20
0.0
 30
0.0
 50
0.0
  0
ENDBLK
  5
7176C
330
7176A
100
AcDbEntity
  8
0
 62
    98
370
     0
100
AcDbBlockEnd
  0
BLOCK
  5
7176E
330
7176D
100
AcDbEntity
  8
0
 62
    98
370
     0
100
AcDbBlockBegin
  2
SUBTRC_10
 70
     0
 10
0.0
 20
0.0
 30
0.0
  3
SUBTRC_10
  1

  0
INSERT
  5
71523
330
7176D
100
AcDbEntity
  8
Level 26
 62
     7
370
    13
100
AcDbBlockReference
  2
Feature Solid_31
 10
0.0
 20
0.0
 30
0.0
 50
0.0
  0
ENDBLK
  5
7176F
330
7176D
100
AcDbEntity
  8
0
 62
    98
370
     0
100
AcDbBlockEnd
  0
BLOCK
  5
71771
330
71770
100
AcDbEntity
  8
0
 62
    98
370
     0
100
AcDbBlockBegin
  2
Feature Solid_31
 70
     0
 10
0.0
 20
0.0
 30
0.0
  3
Feature Solid_31
  1

  0
INSERT
  5
71524
330
71770
100
AcDbEntity
  8
Level 26
 62
     7
370
    13
100
AcDbBlockReference
  2
ROUNDE_11
 10
0.0
 20
0.0
 30
0.0
 50
0.0
  0
ENDBLK
  5
71772
330
71770
100
AcDbEntity
  8
0
 62
    98
370
     0
100
AcDbBlockEnd
  0
BLOCK
  5
71774
330
71773
100
AcDbEntity
  8
0
 62
    98
370
     0
100
AcDbBlockBegin
  2
ROUNDE_11
 70
     0
 10
0.0
 20
0.0
 30
0.0
  3
ROUNDE_11
  1

  0
INSERT
  5
71525
330
71773
100
AcDbEntity
  8
Level 26
 62
     7
370
    13
100
AcDbBlockReference
  2
SUBTRC_11
 10
0.0
 20
0.0
 30
0.0
 50
0.0
  0
ENDBLK
  5
71775
330
71773
100
AcDbEntity
  8
0
 62
    98
370
     0
100
AcDbBlockEnd
  0
BLOCK
  5
71777
330
71776
100
AcDbEntity
  8
0
 62
    98
370
     0
100
AcDbBlockBegin
  2
SUBTRC_11
 70
     0
 10
0.0
 20
0.0
 30
0.0
  3
SUBTRC_11
  1

  0
INSERT
  5
71528
330
71776
100
AcDbEntity
  8
Level 26
 62
     7
370
    13
100
AcDbBlockReference
  2
Feature Solid_32
 10
0.0
 20
0.0
 30
0.0
 50
0.0
  0
ENDBLK
  5
71778
330
71776
100
AcDbEntity
  8
0
 62
    98
370
     0
100
AcDbBlockEnd
  0
BLOCK
  5
7177A
330
71779
100
AcDbEntity
  8
0
 62
    98
370
     0
100
AcDbBlockBegin
  2
Feature Solid_32
 70
     0
 10
0.0
 20
0.0
 30
0.0
  3
Feature Solid_32
  1

  0
INSERT
  5
71529
330
71779
100
AcDbEntity
  8
Level 26
 62
     7
370
    13
100
AcDbBlockReference
  2
UNITE_12
 10
0.0
 20
0.0
 30
0.0
 50
0.0
  0
ENDBLK
  5
7177B
330
71779
100
AcDbEntity
  8
0
 62
    98
370
     0
100
AcDbBlockEnd
  0
BLOCK
  5
7177D
330
7177C
100
AcDbEntity
  8
0
 62
    98
370
     0
100
AcDbBlockBegin
  2
UNITE_12
 70
     0
 10
0.0
 20
0.0
 30
0.0
  3
UNITE_12
  1

  0
INSERT
  5
7152A
330
7177C
100
AcDbEntity
  8
Level 26
 62
     7
370
    13
100
AcDbBlockReference
  2
Feature Solid_33
 10
0.0
 20
0.0
 30
0.0
 50
0.0
  0
INSERT
  5
7152E
330
7177C
100
AcDbEntity
  8
Level 26
 62
     7
370
    13
100
AcDbBlockReference
  2
Feature Solid_34
 10
69.639333
 20
974.850445
 30
0.0
 50
270.0
  0
ENDBLK
  5
7177E
330
7177C
100
AcDbEntity
  8
0
 62
    98
370
     0
100
AcDbBlockEnd
  0
BLOCK
  5
71780
330
7177F
100
AcDbEntity
  8
0
 62
    98
370
     0
100
AcDbBlockBegin
  2
Feature Solid_33
 70
     0
 10
0.0
 20
0.0
 30
0.0
  3
Feature Solid_33
  1

  0
INSERT
  5
7152B
330
7177F
100
AcDbEntity
  8
Level 26
 62
     7
370
    13
100
AcDbBlockReference
  2
SLAB_2
 10
0.0
 20
0.0
 30
0.0
 50
0.0
  0
ENDBLK
  5
71781
330
7177F
100
AcDbEntity
  8
0
 62
    98
370
     0
100
AcDbBlockEnd
  0
BLOCK
  5
71783
330
71782
100
AcDbEntity
  8
0
 62
    98
370
     0
100
AcDbBlockBegin
  2
SLAB_2
 70
     0
 10
0.0
 20
0.0
 30
0.0
  3
SLAB_2
  1

  0
LINE
  5
7152C
330
71782
100
AcDbEntity
  8
Level 26
 62
     7
370
    13
100
AcDbLine
 10
426.799889
 20
427.355556
 30
0.0
 11
460.574692
 21
427.355556
 31
0.0
  0
POINT
  5
7152D
330
71782
100
AcDbEntity
  8
Level 26
 62
     7
370
    13
100
AcDbPoint
 10
460.574692
 20
427.355556
 30
0.0
  0
ENDBLK
  5
71784
330
71782
100
AcDbEntity
  8
0
 62
    98
370
     0
100
AcDbBlockEnd
  0
BLOCK
  5
71786
330
71785
100
AcDbEntity
  8
0
 62
    98
370
     0
100
AcDbBlockBegin
  2
Feature Solid_34
 70
     0
 10
0.0
 20
0.0
 30
0.0
  3
Feature Solid_34
  1

  0
INSERT
  5
7152F
330
71785
100
AcDbEntity
  8
Level 26
 62
     7
370
    13
100
AcDbBlockReference
  2
CONE_3
 10
0.0
 20
0.0
 30
0.0
 50
0.0
  0
ENDBLK
  5
71787
330
71785
100
AcDbEntity
  8
0
 62
    98
370
     0
100
AcDbBlockEnd
  0
BLOCK
  5
71789
330
71788
100
AcDbEntity
  8
0
 62
    98
370
     0
100
AcDbBlockBegin
  2
CONE_3
 70
     0
 10
0.0
 20
0.0
 30
0.0
  3
CONE_3
  1

  0
LINE
  5
71530
330
71788
100
AcDbEntity
  8
Level 26
 62
     7
370
    13
100
AcDbLine
 10
547.494889
 20
390.93536
 30
0.0
 11
541.434889
 21
401.431588
 31
0.0
  0
ENDBLK
  5
7178A
330
71788
100
AcDbEntity
  8
0
 62
    98
370
     0
100
AcDbBlockEnd
  0
BLOCK
  5
7178C
330
7178B
100
AcDbEntity
  8
0
 62
    98
370
     0
100
AcDbBlockBegin
  2
Feature Solid_35
 70
     0
 10
0.0
 20
0.0
 30
0.0
  3
Feature Solid_35
  1

  0
INSERT
  5
71532
330
7178B
100
AcDbEntity
  8
Level 26
 62
     7
370
    13
100
AcDbBlockReference
  2
DDREVL_3
 10
0.0
 20
0.0
 30
0.0
 50
0.0
  0
ENDBLK
  5
7178D
330
7178B
100
AcDbEntity
  8
0
 62
    98
370
     0
100
AcDbBlockEnd
  0
BLOCK
  5
7178F
330
7178E
100
AcDbEntity
  8
0
 62
    98
370
     0
100
AcDbBlockBegin
  2
DDREVL_3
 70
     0
 10
0.0
 20
0.0
 30
0.0
  3
DDREVL_3
  1

  0
LINE
  5
71533
330
7178E
100
AcDbEntity
  8
Level 26
 62
     7
370
    13
100
AcDbLine
 10
471.07092
 20
433.415556
 30
0.0
 11
471.07092
 21
433.415556
 31
0.0
  0
ENDBLK
  5
71790
330
7178E
100
AcDbEntity
  8
0
 62
    98
370
     0
100
AcDbBlockEnd
  0
BLOCK
  5
71792
330
71791
100
AcDbEntity
  8
0
 62
    98
370
     0
100
AcDbBlockBegin
  2
Feature Solid_36
 70
     0
 10
0.0
 20
0.0
 30
0.0
  3
Feature Solid_36
  1

  0
INSERT
  5
71558
330
71791
100
AcDbEntity
  8
Level 26
 62
     7
370
    13
100
AcDbBlockReference
  2
UNITE_13
 10
-753.095703
 20
918.341112
 30
0.0
 50
180.0
210
0.0
220
0.0
230
-1.0
  0
ENDBLK
  5
71793
330
71791
100
AcDbEntity
  8
0
 62
    98
370
     0
100
AcDbBlockEnd
  0
BLOCK
  5
71795
330
71794
100
AcDbEntity
  8
0
 62
    98
370
     0
100
AcDbBlockBegin
  2
UNITE_13
 70
     0
 10
0.0
 20
0.0
 30
0.0
  3
UNITE_13
  1

  0
INSERT
  5
71559
330
71794
100
AcDbEntity
  8
Level 26
 62
     7
370
    13
100
AcDbBlockReference
  2
Feature Solid_37
 10
0.0
 20
0.0
 30
0.0
  0
INSERT
  5
71561
330
71794
100
AcDbEntity
  8
Level 26
 62
     7
370
    13
100
AcDbBlockReference
  2
Feature Solid_38
 10
0.0
 20
0.0
 30
0.0
  0
ENDBLK
  5
71796
330
71794
100
AcDbEntity
  8
0
 62
    98
370
     0
100
AcDbBlockEnd
  0
BLOCK
  5
71798
330
71797
100
AcDbEntity
  8
0
 62
    98
370
     0
100
AcDbBlockBegin
  2
Feature Solid_37
 70
     0
 10
0.0
 20
0.0
 30
0.0
  3
Feature Solid_37
  1

  0
INSERT
  5
7155A
330
71797
100
AcDbEntity
  8
Level 26
 62
     7
370
    13
100
AcDbBlockReference
  2
DDREVL_4
 10
0.0
 20
0.0
 30
0.0
  0
ENDBLK
  5
71799
330
71797
100
AcDbEntity
  8
0
 62
    98
370
     0
100
AcDbBlockEnd
  0
BLOCK
  5
7179B
330
7179A
100
AcDbEntity
  8
0
 62
    98
370
     0
100
AcDbBlockBegin
  2
DDREVL_4
 70
     0
 10
0.0
 20
0.0
 30
0.0
  3
DDREVL_4
  1

  0
ARC
  5
7155B
330
7179A
100
AcDbEntity
  8
Level 26
 62
     7
370
    13
100
AcDbCircle
 10
-515.679889
 20
459.170556
 30
0.0
 40
51.5100000000034
210
0.0
220
0.0
230
-1.0
100
AcDbArc
 50
0.0
 51
359.999994
  0
ARC
  5
7155C
330
7179A
100
AcDbEntity
  8
Level 26
 62
     7
370
    13
100
AcDbCircle
 10
-515.679889
 20
459.170556
 30
0.0
 40
74.04684558398081
210
0.0
220
0.0
230
-1.0
100
AcDbArc
 50
0.0
 51
359.999994
  0
LINE
  5
7155D
330
7179A
100
AcDbEntity
  8
Level 26
 62
     7
370
    13
100
AcDbLine
 10
515.679889
 20
510.680556
 30
0.0
 11
515.679889
 21
533.217402
 31
0.0
  0
LINE
  5
7155E
330
7179A
100
AcDbEntity
  8
Level 26
 62
     7
370
    13
100
AcDbLine
 10
567.189889
 20
459.170556
 30
0.0
 11
589.726734
 21
459.170556
 31
0.0
  0
LINE
  5
7155F
330
7179A
100
AcDbEntity
  8
Level 26
 62
     7
370
    13
100
AcDbLine
 10
515.679889
 20
407.660556
 30
0.0
 11
515.679889
 21
385.123711
 31
0.0
  0
LINE
  5
71560
330
7179A
100
AcDbEntity
  8
Level 26
 62
     7
370
    13
100
AcDbLine
 10
464.169889
 20
459.170556
 30
0.0
 11
441.633043
 21
459.170556
 31
0.0
  0
ENDBLK
  5
7179C
330
7179A
100
AcDbEntity
  8
0
 62
    98
370
     0
100
AcDbBlockEnd
  0
BLOCK
  5
7179E
330
7179D
100
AcDbEntity
  8
0
 62
    98
370
     0
100
AcDbBlockBegin
  2
Feature Solid_38
 70
     0
 10
0.0
 20
0.0
 30
0.0
  3
Feature Solid_38
  1

  0
INSERT
  5
71562
330
7179D
100
AcDbEntity
  8
Level 26
 62
     7
370
    13
100
AcDbBlockReference
  2
ROUNDE_12
 10
0.0
 20
0.0
 30
0.0
  0
ENDBLK
  5
7179F
330
7179D
100
AcDbEntity
  8
0
 62
    98
370
     0
100
AcDbBlockEnd
  0
BLOCK
  5
717A1
330
717A0
100
AcDbEntity
  8
0
 62
    98
370
     0
100
AcDbBlockBegin
  2
ROUNDE_12
 70
     0
 10
0.0
 20
0.0
 30
0.0
  3
ROUNDE_12
  1

  0
INSERT
  5
71563
330
717A0
100
AcDbEntity
  8
Level 26
 62
     7
370
    13
100
AcDbBlockReference
  2
ROUNDE_13
 10
0.0
 20
0.0
 30
0.0
  0
SPLINE
  5
715BF
330
717A0
100
AcDbEntity
  8
Level 26
 62
     7
370
    13
100
AcDbSpline
210
0.0
220
0.0
230
1.0
 70
     8
 71
     3
 72
    24
 73
    20
 74
     0
 42
0.000000001
 43
0.0000000001
 40
0.0
 40
0.0
 40
0.0
 40
0.0
 40
0.1249999999999999
 40
0.1249999999999999
 40
0.2499999999999997
 40
0.2499999999999997
 40
0.3749999999999996
 40
0.3749999999999996
 40
0.4999999999999995
 40
0.4999999999999995
 40
0.6249999999999993
 40
0.6249999999999993
 40
0.7499999999999992
 40
0.7499999999999992
 40
0.8749999999999989
 40
0.8749999999999989
 40
0.9374999999999996
 40
0.9374999999999996
 40
1.0
 40
1.0
 40
1.0
 40
1.0
 10
461.2498241587372
 20
427.3555561754246
 30
0.0
 10
461.7801534765844
 20
427.3555561754246
 30
0.0
 10
462.3278052910864
 20
427.1894214704944
 30
0.0
 10
463.4806525247167
 20
426.5388250760011
 30
0.0
 10
464.090889191199
 20
426.0485455131822
 30
0.0
 10
465.3663621581658
 20
424.7597902840384
 30
0.0
 10
466.0232587748541
 20
423.9718424481264
 30
0.0
 10
467.3951718370799
 20
422.1240933969979
 30
0.0
 10
468.1175885779166
 20
421.0508662993669
 30
0.0
 10
469.6063098218364
 20
418.7098492197495
 30
0.0
 10
470.3723271069898
 20
417.442926197423
 30
0.0
 10
472.0035764647163
 20
414.7508776481416
 30
0.0
 10
472.8729293226674
 20
413.3148738618078
 30
0.0
 10
474.7663465166442
 20
410.4540457321018
 30
0.0
 10
475.8015305566877
 20
409.0005592279433
 30
0.0
 10
477.6466863433138
 20
407.0043312918901
 30
0.0
 10
478.3048818663246
 20
406.3793505046371
 30
0.0
 10
479.7515639489461
 20
405.2606444420534
 30
0.0
 10
480.5445250727907
 20
404.7688223927178
 30
0.0
 10
481.3880726398934
 20
404.3847405900637
 30
0.0
  0
LINE
  5
715C2
330
717A0
100
AcDbEntity
  8
Level 26
 62
     7
370
    13
100
AcDbLine
 10
461.249824
 20
427.355556
 30
0.0
 11
460.574692
 21
427.355556
 31
0.0
  0
SPLINE
  5
715C3
330
717A0
100
AcDbEntity
  8
Level 26
 62
     7
370
    13
100
AcDbSpline
210
0.0
220
0.0
230
1.0
 70
     8
 71
     3
 72
    22
 73
    18
 74
     0
 42
0.000000001
 43
0.0000000001
 40
0.0
 40
0.0
 40
0.0
 40
0.0
 40
0.1250000000000001
 40
0.1250000000000001
 40
0.2500000000000002
 40
0.2500000000000002
 40
0.3750000000000003
 40
0.3750000000000003
 40
0.5000000000000005
 40
0.5000000000000005
 40
0.6250000000000004
 40
0.6250000000000004
 40
0.7500000000000002
 40
0.7500000000000002
 40
0.8750000000000001
 40
0.8750000000000001
 40
1.0
 40
1.0
 40
1.0
 40
1.0
 10
494.7550696414295
 20
412.1021799071635
 30
0.0
 10
492.8514949507712
 20
412.9484371876045
 30
0.0
 10
491.0263121883567
 20
413.8977838814462
 30
0.0
 10
487.5309662291665
 20
415.9842052152537
 30
0.0
 10
485.8416483023761
 20
417.1377189676276
 30
0.0
 10
482.7501793335208
 20
419.5130949053972
 30
0.0
 10
481.3402082716857
 20
420.7357438310924
 30
0.0
 10
478.7689715915453
 20
423.1978908623428
 30
0.0
 10
477.6192726630084
 20
424.4292201585759
 30
0.0
 10
475.645050908934
 20
426.7239433456341
 30
0.0
 10
474.7961983149462
 20
427.8139236371571
 30
0.0
 10
473.3829907567874
 20
429.7479973500845
 30
0.0
 10
472.820721841203
 20
430.586451457438
 30
0.0
 10
471.9282717503774
 20
431.9721142985168
 30
0.0
 10
471.6021961568517
 20
432.5132678879489
 30
0.0
 10
471.1763735450504
 20
433.2304108873707
 30
0.0
 10
471.0709202188513
 20
433.4155561753976
 30
0.0
 10
471.0709202188513
 20
433.4155561753976
 30
0.0
  0
LINE
  5
715C6
330
717A0
100
AcDbEntity
  8
Level 26
 62
     7
370
    13
100
AcDbLine
 10
460.574692
 20
427.355556
 30
0.0
 11
471.07092
 21
433.415556
 31
0.0
  0
LINE
  5
715C7
330
717A0
100
AcDbEntity
  8
Level 26
 62
     7
370
    13
100
AcDbLine
 10
481.388073
 20
404.384741
 30
0.0
 11
494.75507
 21
412.10218
 31
0.0
  0
ENDBLK
  5
717A2
330
717A0
100
AcDbEntity
  8
0
 62
    98
370
     0
100
AcDbBlockEnd
  0
BLOCK
  5
717A4
330
717A3
100
AcDbEntity
  8
0
 62
    98
370
     0
100
AcDbBlockBegin
  2
ROUNDE_13
 70
     0
 10
0.0
 20
0.0
 30
0.0
  3
ROUNDE_13
  1

  0
INSERT
  5
71564
330
717A3
100
AcDbEntity
  8
Level 26
 62
     7
370
    13
100
AcDbBlockReference
  2
ROUNDE_14
 10
0.0
 20
0.0
 30
0.0
  0
SPLINE
  5
715A7
330
717A3
100
AcDbEntity
  8
Level 26
 62
     7
370
    13
100
AcDbSpline
210
0.0
220
0.0
230
1.0
 70
     8
 71
     3
 72
    14
 73
    10
 74
     0
 42
0.000000001
 43
0.0000000001
 40
0.0
 40
0.0
 40
0.0
 40
0.0
 40
0.25
 40
0.25
 40
0.5
 40
0.5
 40
0.75
 40
0.75
 40
1.0
 40
1.0
 40
1.0
 40
1.0
 10
442.3369011542085
 20
439.0631410505333
 30
0.0
 10
441.2499092766829
 20
442.3076467275092
 30
0.0
 10
440.4014552052017
 20
445.6366104749161
 30
0.0
 10
439.2655130050816
 20
452.362076659569
 30
0.0
 10
438.9742344758415
 20
455.7600979178361
 30
0.0
 10
438.9771194205004
 20
462.6317250935476
 30
0.0
 10
439.2748100928679
 20
466.0530451862876
 30
0.0
 10
440.4117632688057
 20
472.7462359417852
 30
0.0
 10
441.2508293147738
 20
476.036211797308
 30
0.0
 10
442.3369011542085
 20
479.2779713003066
 30
0.0
  0
SPLINE
  5
715AA
330
717A3
100
AcDbEntity
  8
Level 26
 62
     7
370
    13
100
AcDbSpline
210
0.0
220
0.0
230
1.0
 70
     8
 71
     3
 72
    10
 73
     6
 74
     0
 42
0.000000001
 43
0.0000000001
 40
0.0
 40
0.0
 40
0.0
 40
0.0
 40
0.5
 40
0.5
 40
1.0
 40
1.0
 40
1.0
 40
1.0
 10
431.0031330221181
 20
485.9355561754153
 30
0.0
 10
429.7458220857252
 20
477.0766111475228
 30
0.0
 10
429.0955534508002
 20
468.1478412683251
 30
0.0
 10
429.0949204691887
 20
450.2065303194158
 30
0.0
 10
429.7455682993568
 20
441.2662893683798
 30
0.0
 10
431.0031330221181
 20
432.4055561754246
 30
0.0
  0
SPLINE
  5
715AD
330
717A3
100
AcDbEntity
  8
Level 26
 62
     7
370
    13
100
AcDbSpline
210
0.0
220
0.0
230
1.0
 70
     8
 71
     3
 72
    10
 73
     6
 74
     0
 42
0.000000001
 43
0.0000000001
 40
0.0
 40
0.0
 40
0.0
 40
0.0
 40
0.5
 40
0.5
 40
1.0
 40
1.0
 40
1.0
 40
1.0
 10
507.7431907767504
 20
397.0555561754246
 30
0.0
 10
503.1935701783445
 20
397.5337145519437
 30
0.0
 10
498.6662530939092
 20
398.3993119062585
 30
0.0
 10
489.8515622729469
 20
400.8804762929965
 30
0.0
 10
485.5507501042389
 20
402.4894015164589
 30
0.0
 10
481.3880726398878
 20
404.3847405900656
 30
0.0
  0
SPLINE
  5
715B0
330
717A3
100
AcDbEntity
  8
Level 26
 62
     7
370
    13
100
AcDbSpline
210
0.0
220
0.0
230
1.0
 70
    24
 71
     3
 72
    16
 73
    12
 74
     0
 42
0.000000001
 43
0.0000000001
 40
0.0
 40
0.0
 40
0.0
 40
0.0
 40
0.2499999999999986
 40
0.2499999999999986
 40
0.3749999999999982
 40
0.3749999999999982
 40
0.4999999999999979
 40
0.4999999999999979
 40
0.749999999999999
 40
0.749999999999999
 40
1.0
 40
1.0
 40
1.0
 40
1.0
 10
461.2498241587372
 20
427.3555561754246
 30
0.0
 10
457.49562942495
 20
427.3555561754246
 30
0.0
 10
453.8521075398362
 20
427.3555561754246
 30
0.0
 10
448.6990803471335
 20
427.3555561754246
 30
0.0
 10
447.0289193884745
 20
427.3555561754246
 30
0.0
 10
443.7942813138288
 20
427.3555561754246
 30
0.0
 10
442.2225745750647
 20
427.3555561754246
 30
0.0
 10
437.7605294288319
 20
427.3555561754246
 30
0.0
 10
435.1022329370639
 20
427.3555561754246
 30
0.0
 10
430.7352053517847
 20
427.3555561754246
 30
0.0
 10
428.9818763304538
 20
427.3555561754246
 30
0.0
 10
427.7964800754521
 20
427.3555561754246
 30
0.0
  0
SPLINE
  5
715B3
330
717A3
100
AcDbEntity
  8
Level 26
 62
     7
370
    13
100
AcDbSpline
210
0.0
220
0.0
230
1.0
 70
     8
 71
     3
 72
    18
 73
    14
 74
     0
 42
0.000000001
 43
0.0000000001
 40
0.0
 40
0.0
 40
0.0
 40
0.0
 40
0.2500000000000013
 40
0.2500000000000013
 40
0.5000000000000027
 40
0.5000000000000027
 40
0.625000000000002
 40
0.625000000000002
 40
0.7500000000000014
 40
0.7500000000000014
 40
0.8750000000000007
 40
0.8750000000000007
 40
1.0
 40
1.0
 40
1.0
 40
1.0
 10
427.7964800754521
 20
427.3555561754246
 30
0.0
 10
428.1536055644933
 20
427.3555561754246
 30
0.0
 10
428.6420332971438
 20
427.3582460970709
 30
0.0
 10
429.7327101668193
 20
427.4432367999939
 30
0.0
 10
430.3348168836292
 20
427.5202377139748
 30
0.0
 10
431.1443107899276
 20
427.9053044495721
 30
0.0
 10
431.4026924257591
 20
428.0827944787735
 30
0.0
 10
431.8502092355747
 20
428.5924916414971
 30
0.0
 10
432.0459301958676
 20
428.9266263939802
 30
0.0
 10
432.2466865980027
 20
429.8154081079451
 30
0.0
 10
432.2274664272199
 20
430.3876556238042
 30
0.0
 10
431.7931926155311
 20
431.4979001417708
 30
0.0
 10
431.4096045370324
 20
431.996416694628
 30
0.0
 10
431.0031330221181
 20
432.4055561754246
 30
0.0
  0
SPLINE
  5
715B6
330
717A3
100
AcDbEntity
  8
Level 26
 62
     7
370
    13
100
AcDbSpline
210
0.0
220
0.0
230
1.0
 70
     8
 71
     3
 72
    18
 73
    14
 74
     0
 42
0.000000001
 43
0.0000000001
 40
0.0
 40
0.0
 40
0.0
 40
0.0
 40
0.2500000000000007
 40
0.2500000000000007
 40
0.5000000000000014
 40
0.5000000000000014
 40
0.625000000000001
 40
0.625000000000001
 40
0.7500000000000007
 40
0.7500000000000007
 40
0.8750000000000003
 40
0.8750000000000003
 40
1.0
 40
1.0
 40
1.0
 40
1.0
 10
442.3369011542085
 20
439.0631410505333
 30
0.0
 10
443.1967505675834
 20
436.4966211337641
 30
0.0
 10
444.0400868290549
 20
433.9054712516948
 30
0.0
 10
445.6422716797701
 20
428.7652007034741
 30
0.0
 10
446.4006967233417
 20
426.2064137738863
 30
0.0
 10
447.4923302078336
 20
422.5566312331416
 30
0.0
 10
447.8454432914291
 20
421.386074994109
 30
0.0
 10
448.5480701447126
 20
419.1950708173494
 30
0.0
 10
448.9035956503449
 20
418.1570219037094
 30
0.0
 10
449.6281394894008
 20
416.3750047218481
 30
0.0
 10
449.9991355971523
 20
415.6239813067697
 30
0.0
 10
450.8108912960551
 20
414.5163701215143
 30
0.0
 10
451.2297901167271
 20
414.1945528702875
 30
0.0
 10
451.7617362991177
 20
413.9939284174972
 30
0.0
  0
SPLINE
  5
715B9
330
717A3
100
AcDbEntity
  8
Level 26
 62
     7
370
    13
100
AcDbSpline
210
0.0
220
0.0
230
1.0
 70
     8
 71
     3
 72
    20
 73
    16
 74
     0
 42
0.000000001
 43
0.0000000001
 40
0.0
 40
0.0
 40
0.0
 40
0.0
 40
0.0624999999999999
 40
0.0624999999999999
 40
0.1249999999999997
 40
0.1249999999999997
 40
0.25
 40
0.25
 40
0.3750000000000003
 40
0.3750000000000003
 40
0.5000000000000006
 40
0.5000000000000006
 40
0.7500000000000004
 40
0.7500000000000004
 40
1.0
 40
1.0
 40
1.0
 40
1.0
 10
451.7617362991177
 20
413.9939284174972
 30
0.0
 10
452.2785077335943
 20
413.7990271479854
 30
0.0
 10
453.0037623830248
 20
413.5235935661652
 30
0.0
 10
454.6629256408623
 20
412.8843802231605
 30
0.0
 10
455.6119206688663
 20
412.5148286382266
 30
0.0
 10
458.6755494195204
 20
411.3079815305722
 30
0.0
 10
460.9461647425814
 20
410.3951803165529
 30
0.0
 10
465.563103541147
 20
408.5395819192304
 30
0.0
 10
467.9542262581699
 20
407.5802546270209
 30
0.0
 10
472.7549870273583
 20
405.7134063770286
 30
0.0
 10
475.1683675443787
 20
404.8046117980898
 30
0.0
 10
482.457326815158
 20
402.2246599983325
 30
0.0
 10
487.3824938878042
 20
400.7046270843799
 30
0.0
 10
497.4161869253626
 20
398.3375830830898
 30
0.0
 10
502.5245256486014
 20
397.4879773642201
 30
0.0
 10
507.7431907767113
 20
397.0555561754242
 30
0.0
  0
ELLIPSE
  5
715BC
330
717A3
100
AcDbEntity
  8
Level 26
 62
     7
370
    13
100
AcDbEllipse
 10
427.79648
 20
397.055556
 30
0.0
 11
0.0
 21
30.30000000000002
 31
0.0
210
0.0
220
0.0
230
-1.0
 40
0.9539045718304091
 41
0.0000000000000036
 42
0.9775902890469803
  0
ELLIPSE
  5
715BD
330
717A3
100
AcDbEntity
  8
Level 26
 62
     7
370
    13
100
AcDbEllipse
 10
418.052966
 20
432.405556
 30
0.0
 11
28.05443211839423
 21
11.44721968490216
 31
0.0
210
0.0
220
0.0
230
1.0
 40
0.1758217249114041
 41
-1.16394104508646
 42
-0.6004811796356302
  0
ELLIPSE
  5
715BE
330
717A3
100
AcDbEntity
  8
Level 26
 62
     7
370
    13
100
AcDbEllipse
 10
423.366343
 20
406.367613
 30
0.0
 11
30.16462650409882
 21
2.860997705035556
 31
0.0
210
0.0
220
0.0
230
-0.9999999999999998
 40
0.7542389838019889
 41
5.06909158854133
 42
5.742715018433877
  0
ENDBLK
  5
717A5
330
717A3
100
AcDbEntity
  8
0
 62
    98
370
     0
100
AcDbBlockEnd
  0
BLOCK
  5
717A7
330
717A6
100
AcDbEntity
  8
0
 62
    98
370
     0
100
AcDbBlockBegin
  2
ROUNDE_14
 70
     0
 10
0.0
 20
0.0
 30
0.0
  3
ROUNDE_14
  1

  0
INSERT
  5
71565
330
717A6
100
AcDbEntity
  8
Level 26
 62
     7
370
    13
100
AcDbBlockReference
  2
SUBTRC_12
 10
0.0
 20
0.0
 30
0.0
  0
LINE
  5
7159D
330
717A6
100
AcDbEntity
  8
Level 26
 62
     7
370
    13
100
AcDbLine
 10
421.749889
 20
485.935556
 30
0.0
 11
421.749889
 21
432.405556
 31
0.0
  0
LINE
  5
7159E
330
717A6
100
AcDbEntity
  8
Level 26
 62
     7
370
    13
100
AcDbLine
 10
426.799889
 20
490.985556
 30
0.0
 11
426.799889
 21
427.355556
 31
0.0
  0
POINT
  5
7159F
330
717A6
100
AcDbEntity
  8
Level 26
 62
     7
370
    13
100
AcDbPoint
 10
421.749889
 20
432.405556
 30
0.0
  0
LINE
  5
715A0
330
717A6
100
AcDbEntity
  8
Level 26
 62
     7
370
    13
100
AcDbLine
 10
431.003133
 20
432.405556
 30
0.0
 11
421.749889
 21
432.405556
 31
0.0
  0
LINE
  5
715A1
330
717A6
100
AcDbEntity
  8
Level 26
 62
     7
370
    13
100
AcDbLine
 10
427.79648
 20
427.355556
 30
0.0
 11
426.799889
 21
427.355556
 31
0.0
  0
POINT
  5
715A2
330
717A6
100
AcDbEntity
  8
Level 26
 62
     7
370
    13
100
AcDbPoint
 10
426.799889
 20
427.355556
 30
0.0
  0
ARC
  5
715A3
330
717A6
100
AcDbEntity
  8
Level 26
 62
     7
370
    13
100
AcDbCircle
 10
426.799889
 20
432.405556
 30
0.0
 40
5.050000000000006
100
AcDbArc
 50
180.0
 51
270.0
  0
ARC
  5
715A4
330
717A6
100
AcDbEntity
  8
Level 26
 62
     7
370
    13
100
AcDbCircle
 10
426.799889
 20
432.405556
 30
0.0
 40
5.050000000000001
100
AcDbArc
 50
180.0
 51
270.0
  0
LINE
  5
715A5
330
717A6
100
AcDbEntity
  8
Level 26
 62
     7
370
    13
100
AcDbLine
 10
426.799889
 20
459.170556
 30
0.0
 11
421.749889
 21
459.170556
 31
0.0
  0
ARC
  5
715A6
330
717A6
100
AcDbEntity
  8
Level 26
 62
     7
370
    13
100
AcDbCircle
 10
-426.799889
 20
432.405556
 30
0.0
 40
5.050000000000001
210
0.0
220
0.0
230
-1.0
100
AcDbArc
 50
270.0
 51
0.0
  0
ENDBLK
  5
717A8
330
717A6
100
AcDbEntity
  8
0
 62
    98
370
     0
100
AcDbBlockEnd
  0
BLOCK
  5
717AA
330
717A9
100
AcDbEntity
  8
0
 62
    98
370
     0
100
AcDbBlockBegin
  2
SUBTRC_12
 70
     0
 10
0.0
 20
0.0
 30
0.0
  3
SUBTRC_12
  1

  0
INSERT
  5
71568
330
717A9
100
AcDbEntity
  8
Level 26
 62
     7
370
    13
100
AcDbBlockReference
  2
Feature Solid_39
 10
0.0
 20
0.0
 30
0.0
  0
ENDBLK
  5
717AB
330
717A9
100
AcDbEntity
  8
0
 62
    98
370
     0
100
AcDbBlockEnd
  0
BLOCK
  5
717AD
330
717AC
100
AcDbEntity
  8
0
 62
    98
370
     0
100
AcDbBlockBegin
  2
Feature Solid_39
 70
     0
 10
0.0
 20
0.0
 30
0.0
  3
Feature Solid_39
  1

  0
INSERT
  5
71569
330
717AC
100
AcDbEntity
  8
Level 26
 62
     7
370
    13
100
AcDbBlockReference
  2
SUBTRC_13
 10
0.0
 20
0.0
 30
0.0
  0
ENDBLK
  5
717AE
330
717AC
100
AcDbEntity
  8
0
 62
    98
370
     0
100
AcDbBlockEnd
  0
BLOCK
  5
717B0
330
717AF
100
AcDbEntity
  8
0
 62
    98
370
     0
100
AcDbBlockBegin
  2
SUBTRC_13
 70
     0
 10
0.0
 20
0.0
 30
0.0
  3
SUBTRC_13
  1

  0
INSERT
  5
7156C
330
717AF
100
AcDbEntity
  8
Level 26
 62
     7
370
    13
100
AcDbBlockReference
  2
Feature Solid_40
 10
0.0
 20
0.0
 30
0.0
  0
ENDBLK
  5
717B1
330
717AF
100
AcDbEntity
  8
0
 62
    98
370
     0
100
AcDbBlockEnd
  0
BLOCK
  5
717B3
330
717B2
100
AcDbEntity
  8
0
 62
    98
370
     0
100
AcDbBlockBegin
  2
Feature Solid_40
 70
     0
 10
0.0
 20
0.0
 30
0.0
  3
Feature Solid_40
  1

  0
INSERT
  5
7156D
330
717B2
100
AcDbEntity
  8
Level 26
 62
     7
370
    13
100
AcDbBlockReference
  2
UNITE_14
 10
0.0
 20
0.0
 30
0.0
  0
ENDBLK
  5
717B4
330
717B2
100
AcDbEntity
  8
0
 62
    98
370
     0
100
AcDbBlockEnd
  0
BLOCK
  5
717B6
330
717B5
100
AcDbEntity
  8
0
 62
    98
370
     0
100
AcDbBlockBegin
  2
UNITE_14
 70
     0
 10
0.0
 20
0.0
 30
0.0
  3
UNITE_14
  1

  0
INSERT
  5
7156E
330
717B5
100
AcDbEntity
  8
Level 26
 62
     7
370
    13
100
AcDbBlockReference
  2
Feature Solid_41
 10
0.0
 20
0.0
 30
0.0
  0
INSERT
  5
7158D
330
717B5
100
AcDbEntity
  8
Level 26
 62
     7
370
    13
100
AcDbBlockReference
  2
Feature Solid_47
 10
0.0
 20
0.0
 30
0.0
  0
ENDBLK
  5
717B7
330
717B5
100
AcDbEntity
  8
0
 62
    98
370
     0
100
AcDbBlockEnd
  0
BLOCK
  5
717B9
330
717B8
100
AcDbEntity
  8
0
 62
    98
370
     0
100
AcDbBlockBegin
  2
Feature Solid_41
 70
     0
 10
0.0
 20
0.0
 30
0.0
  3
Feature Solid_41
  1

  0
INSERT
  5
7156F
330
717B8
100
AcDbEntity
  8
Level 26
 62
     7
370
    13
100
AcDbBlockReference
  2
SUBTRC_14
 10
0.0
 20
0.0
 30
0.0
  0
ENDBLK
  5
717BA
330
717B8
100
AcDbEntity
  8
0
 62
    98
370
     0
100
AcDbBlockEnd
  0
BLOCK
  5
717BC
330
717BB
100
AcDbEntity
  8
0
 62
    98
370
     0
100
AcDbBlockBegin
  2
SUBTRC_14
 70
     0
 10
0.0
 20
0.0
 30
0.0
  3
SUBTRC_14
  1

  0
INSERT
  5
71572
330
717BB
100
AcDbEntity
  8
Level 26
 62
     7
370
    13
100
AcDbBlockReference
  2
Feature Solid_42
 10
0.0
 20
0.0
 30
0.0
  0
ENDBLK
  5
717BD
330
717BB
100
AcDbEntity
  8
0
 62
    98
370
     0
100
AcDbBlockEnd
  0
BLOCK
  5
717BF
330
717BE
100
AcDbEntity
  8
0
 62
    98
370
     0
100
AcDbBlockBegin
  2
Feature Solid_42
 70
     0
 10
0.0
 20
0.0
 30
0.0
  3
Feature Solid_42
  1

  0
INSERT
  5
71573
330
717BE
100
AcDbEntity
  8
Level 26
 62
     7
370
    13
100
AcDbBlockReference
  2
ROUNDE_15
 10
0.0
 20
0.0
 30
0.0
  0
ENDBLK
  5
717C0
330
717BE
100
AcDbEntity
  8
0
 62
    98
370
     0
100
AcDbBlockEnd
  0
BLOCK
  5
717C2
330
717C1
100
AcDbEntity
  8
0
 62
    98
370
     0
100
AcDbBlockBegin
  2
ROUNDE_15
 70
     0
 10
0.0
 20
0.0
 30
0.0
  3
ROUNDE_15
  1

  0
INSERT
  5
71574
330
717C1
100
AcDbEntity
  8
Level 26
 62
     7
370
    13
100
AcDbBlockReference
  2
SUBTRC_15
 10
0.0
 20
0.0
 30
0.0
  0
LINE
  5
7158C
330
717C1
100
AcDbEntity
  8
Level 26
 62
     7
370
    13
100
AcDbLine
 10
421.749889
 20
485.935556
 30
0.0
 11
421.749889
 21
432.405556
 31
0.0
  0
ENDBLK
  5
717C3
330
717C1
100
AcDbEntity
  8
0
 62
    98
370
     0
100
AcDbBlockEnd
  0
BLOCK
  5
717C5
330
717C4
100
AcDbEntity
  8
0
 62
    98
370
     0
100
AcDbBlockBegin
  2
SUBTRC_15
 70
     0
 10
0.0
 20
0.0
 30
0.0
  3
SUBTRC_15
  1

  0
INSERT
  5
71575
330
717C4
100
AcDbEntity
  8
Level 26
 62
     7
370
    13
100
AcDbBlockReference
  2
Feature Solid_43
 10
0.0
 20
0.0
 30
0.0
  0
INSERT
  5
7157F
330
717C4
100
AcDbEntity
  8
Level 26
 62
     7
370
    13
100
AcDbBlockReference
  2
Feature Solid_44
 10
0.0
 20
0.0
 30
0.0
  0
ENDBLK
  5
717C6
330
717C4
100
AcDbEntity
  8
0
 62
    98
370
     0
100
AcDbBlockEnd
  0
BLOCK
  5
717C8
330
717C7
100
AcDbEntity
  8
0
 62
    98
370
     0
100
AcDbBlockBegin
  2
Feature Solid_43
 70
     0
 10
0.0
 20
0.0
 30
0.0
  3
Feature Solid_43
  1

  0
INSERT
  5
71576
330
717C7
100
AcDbEntity
  8
Level 26
 62
     7
370
    13
100
AcDbBlockReference
  2
CONE_4
 10
0.0
 20
0.0
 30
0.0
  0
ENDBLK
  5
717C9
330
717C7
100
AcDbEntity
  8
0
 62
    98
370
     0
100
AcDbBlockEnd
  0
BLOCK
  5
717CB
330
717CA
100
AcDbEntity
  8
0
 62
    98
370
     0
100
AcDbBlockBegin
  2
CONE_4
 70
     0
 10
0.0
 20
0.0
 30
0.0
  3
CONE_4
  1

  0
LINE
  5
71577
330
717CA
100
AcDbEntity
  8
Level 26
 62
     7
370
    13
100
AcDbLine
 10
421.749889
 20
437.455556
 30
0.0
 11
421.749889
 21
480.885556
 31
0.0
  0
SPLINE
  5
71578
330
717CA
100
AcDbEntity
  8
Level 26
 62
     7
370
    13
100
AcDbSpline
210
0.0
220
0.0
230
1.0
 70
     9
 71
     3
 72
    62
 73
    58
 74
     0
 42
0.000000001
 43
0.0000000001
 40
0.0
 40
0.0
 40
0.0
 40
0.0
 40
0.03125
 40
0.03125
 40
0.0625
 40
0.0625
 40
0.0937499999999999
 40
0.0937499999999999
 40
0.1249999999999999
 40
0.1249999999999999
 40
0.1874999999999999
 40
0.1874999999999999
 40
0.2187499999999999
 40
0.2187499999999999
 40
0.2499999999999999
 40
0.2499999999999999
 40
0.2812499999999999
 40
0.2812499999999999
 40
0.3125
 40
0.3125
 40
0.34375
 40
0.34375
 40
0.375
 40
0.375
 40
0.40625
 40
0.40625
 40
0.4375000000000001
 40
0.4375000000000001
 40
0.5
 40
0.5
 40
0.53125
 40
0.53125
 40
0.5625
 40
0.5625
 40
0.59375
 40
0.59375
 40
0.625
 40
0.625
 40
0.65625
 40
0.65625
 40
0.6874999999999999
 40
0.6874999999999999
 40
0.7187499999999999
 40
0.7187499999999999
 40
0.7499999999999999
 40
0.7499999999999999
 40
0.8124999999999998
 40
0.8124999999999998
 40
0.8437499999999998
 40
0.8437499999999998
 40
0.8749999999999998
 40
0.8749999999999998
 40
0.9374999999999998
 40
0.9374999999999998
 40
0.9687499999999998
 40
0.9687499999999998
 40
1.0
 40
1.0
 40
1.0
 40
1.0
 10
464.1698887677766
 20
459.1705561754158
 30
0.0
 10
464.1698887677766
 20
460.6230397339798
 30
0.0
 10
464.231163960218
 20
462.0480911739187
 30
0.0
 10
464.4643157658237
 20
464.8465207694819
 30
0.0
 10
464.6392506227771
 20
466.2345537094603
 30
0.0
 10
465.0714957808218
 20
468.857524880207
 30
0.0
 10
465.3279751312338
 20
470.0986502299401
 30
0.0
 10
465.8954188591614
 20
472.4462860026116
 30
0.0
 10
466.2047153023422
 20
473.5427540279337
 30
0.0
 10
467.1313217404481
 20
476.508600522451
 30
0.0
 10
467.765616357587
 20
478.1151977556356
 30
0.0
 10
468.4551097578442
 20
479.7484462218526
 30
0.0
 10
468.645903486155
 20
480.1748629624516
 30
0.0
 10
468.9027604896387
 20
480.7408353837685
 30
0.0
 10
468.9698993318415
 20
480.8836165626355
 30
0.0
 10
468.9716847056411
 20
480.8874569159446
 30
0.0
 10
468.9039310200028
 20
480.7433327766232
 30
0.0
 10
468.6493663634787
 20
480.182573591315
 30
0.0
 10
468.4626440265715
 20
479.7659152874778
 30
0.0
 10
467.9976694396582
 20
478.6652471924842
 30
0.0
 10
467.7262125399484
 20
477.9966662738034
 30
0.0
 10
467.1411451556569
 20
476.4323015610029
 30
0.0
 10
466.824566932853
 20
475.5264465257655
 30
0.0
 10
466.2052870585917
 20
473.5448876890571
 30
0.0
 10
465.9006519799641
 20
472.4657474648625
 30
0.0
 10
465.3329805587937
 20
470.1215086635043
 30
0.0
 10
465.0721474267929
 20
468.8598231996264
 30
0.0
 10
464.4269290642251
 20
464.94942613722
 30
0.0
 10
464.1715221406088
 20
462.0612760476767
 30
0.0
 10
464.1690845413432
 20
457.769076086121
 30
0.0
 10
464.2296311461609
 20
456.3163213383396
 30
0.0
 10
464.4634010381996
 20
453.5007192745929
 30
0.0
 10
464.6345487493236
 20
452.1397756761199
 30
0.0
 10
465.066748973049
 20
449.5078085253885
 30
0.0
 10
465.3275393541453
 20
448.2451475188121
 30
0.0
 10
465.8916946559639
 20
445.9093581574921
 30
0.0
 10
466.1993434084766
 20
444.8160948920081
 30
0.0
 10
466.8230946541093
 20
442.8185349937546
 30
0.0
 10
467.1336072357148
 20
441.930002475411
 30
0.0
 10
467.7182788318396
 20
440.3646497940169
 30
0.0
 10
467.9950199510358
 20
439.6824673416092
 30
0.0
 10
468.4566898868047
 20
438.5889671232466
 30
0.0
 10
468.6433126068282
 20
438.1720351603854
 30
0.0
 10
468.9010502790843
 20
437.6039697182997
 30
0.0
 10
468.970152641229
 20
437.4569509169687
 30
0.0
 10
468.9720837283507
 20
437.4527971352962
 30
0.0
 10
468.6913269235751
 20
438.0339805828662
 30
0.0
 10
468.0006781057827
 20
439.6686873254682
 30
0.0
 10
467.7244222168028
 20
440.3489300332138
 30
0.0
 10
467.1383402948135
 20
441.9166159122315
 30
0.0
 10
466.8275626913677
 20
442.8053347471998
 30
0.0
 10
465.8930040408054
 20
445.7949533454477
 30
0.0
 10
465.2920950917191
 20
448.1458080395636
 30
0.0
 10
464.6376761782875
 20
452.1156773869878
 30
0.0
 10
464.4664387362113
 20
453.4759345629801
 30
0.0
 10
464.232480297459
 20
456.2704973600356
 30
0.0
 10
464.1698887677785
 20
457.7180726168513
 30
0.0
 10
464.1698887677766
 20
459.1705561754158
 30
0.0
  0
LINE
  5
7157B
330
717CA
100
AcDbEntity
  8
Level 26
 62
     7
370
    13
100
AcDbLine
 10
421.749889
 20
437.455556
 30
0.0
 11
468.945475
 21
437.455556
 31
0.0
  0
LINE
  5
7157C
330
717CA
100
AcDbEntity
  8
Level 26
 62
     7
370
    13
100
AcDbLine
 10
421.749889
 20
459.170556
 30
0.0
 11
464.188629
 21
459.170556
 31
0.0
  0
LINE
  5
7157D
330
717CA
100
AcDbEntity
  8
Level 26
 62
     7
370
    13
100
AcDbLine
 10
421.749889
 20
480.885556
 30
0.0
 11
468.934417
 21
480.885556
 31
0.0
  0
LINE
  5
7157E
330
717CA
100
AcDbEntity
  8
Level 26
 62
     7
370
    13
100
AcDbLine
 10
421.749889
 20
459.170556
 30
0.0
 11
464.169889
 21
459.170556
 31
0.0
  0
ENDBLK
  5
717CC
330
717CA
100
AcDbEntity
  8
0
 62
    98
370
     0
100
AcDbBlockEnd
  0
BLOCK
  5
717CE
330
717CD
100
AcDbEntity
  8
0
 62
    98
370
     0
100
AcDbBlockBegin
  2
Feature Solid_44
 70
     0
 10
0.0
 20
0.0
 30
0.0
  3
Feature Solid_44
  1

  0
INSERT
  5
71580
330
717CD
100
AcDbEntity
  8
Level 26
 62
     7
370
    13
100
AcDbBlockReference
  2
UNITE_15
 10
0.0
 20
0.0
 30
0.0
  0
ENDBLK
  5
717CF
330
717CD
100
AcDbEntity
  8
0
 62
    98
370
     0
100
AcDbBlockEnd
  0
BLOCK
  5
717D1
330
717D0
100
AcDbEntity
  8
0
 62
    98
370
     0
100
AcDbBlockBegin
  2
UNITE_15
 70
     0
 10
0.0
 20
0.0
 30
0.0
  3
UNITE_15
  1

  0
INSERT
  5
71581
330
717D0
100
AcDbEntity
  8
Level 26
 62
     7
370
    13
100
AcDbBlockReference
  2
Feature Solid_45
 10
0.0
 20
0.0
 30
0.0
  0
INSERT
  5
71585
330
717D0
100
AcDbEntity
  8
Level 26
 62
     7
370
    13
100
AcDbBlockReference
  2
Feature Solid_46
 10
69.639333
 20
974.850445
 30
0.0
 50
270.0
  0
ENDBLK
  5
717D2
330
717D0
100
AcDbEntity
  8
0
 62
    98
370
     0
100
AcDbBlockEnd
  0
BLOCK
  5
717D4
330
717D3
100
AcDbEntity
  8
0
 62
    98
370
     0
100
AcDbBlockBegin
  2
Feature Solid_45
 70
     0
 10
0.0
 20
0.0
 30
0.0
  3
Feature Solid_45
  1

  0
INSERT
  5
71582
330
717D3
100
AcDbEntity
  8
Level 26
 62
     7
370
    13
100
AcDbBlockReference
  2
SLAB_3
 10
0.0
 20
0.0
 30
0.0
  0
ENDBLK
  5
717D5
330
717D3
100
AcDbEntity
  8
0
 62
    98
370
     0
100
AcDbBlockEnd
  0
BLOCK
  5
717D7
330
717D6
100
AcDbEntity
  8
0
 62
    98
370
     0
100
AcDbBlockBegin
  2
SLAB_3
 70
     0
 10
0.0
 20
0.0
 30
0.0
  3
SLAB_3
  1

  0
LINE
  5
71583
330
717D6
100
AcDbEntity
  8
Level 26
 62
     7
370
    13
100
AcDbLine
 10
426.799889
 20
427.355556
 30
0.0
 11
460.574692
 21
427.355556
 31
0.0
  0
POINT
  5
71584
330
717D6
100
AcDbEntity
  8
Level 26
 62
     7
370
    13
100
AcDbPoint
 10
460.574692
 20
427.355556
 30
0.0
  0
ENDBLK
  5
717D8
330
717D6
100
AcDbEntity
  8
0
 62
    98
370
     0
100
AcDbBlockEnd
  0
BLOCK
  5
717DA
330
717D9
100
AcDbEntity
  8
0
 62
    98
370
     0
100
AcDbBlockBegin
  2
Feature Solid_46
 70
     0
 10
0.0
 20
0.0
 30
0.0
  3
Feature Solid_46
  1

  0
INSERT
  5
71586
330
717D9
100
AcDbEntity
  8
Level 26
 62
     7
370
    13
100
AcDbBlockReference
  2
CONE_5
 10
0.0
 20
0.0
 30
0.0
  0
ENDBLK
  5
717DB
330
717D9
100
AcDbEntity
  8
0
 62
    98
370
     0
100
AcDbBlockEnd
  0
BLOCK
  5
717DD
330
717DC
100
AcDbEntity
  8
0
 62
    98
370
     0
100
AcDbBlockBegin
  2
CONE_5
 70
     0
 10
0.0
 20
0.0
 30
0.0
  3
CONE_5
  1

  0
SPLINE
  5
71587
330
717DC
100
AcDbEntity
  8
Level 26
 62
     7
370
    13
100
AcDbSpline
210
0.0
220
0.0
230
1.0
 70
     8
 71
     3
 72
    26
 73
    22
 74
     0
 42
0.000000001
 43
0.0000000001
 40
0.0
 40
0.0
 40
0.0
 40
0.0
 40
0.1249999999999999
 40
0.1249999999999999
 40
0.2499999999999997
 40
0.2499999999999997
 40
0.3124999999999996
 40
0.3124999999999996
 40
0.3749999999999996
 40
0.3749999999999996
 40
0.4999999999999997
 40
0.4999999999999997
 40
0.5624999999999997
 40
0.5624999999999997
 40
0.6249999999999999
 40
0.6249999999999999
 40
0.7499999999999999
 40
0.7499999999999999
 40
0.8749999999999998
 40
0.8749999999999998
 40
1.0
 40
1.0
 40
1.0
 40
1.0
 10
489.9248887677601
 20
401.4315876264909
 30
0.0
 10
491.3630757589386
 20
400.601249979988
 30
0.0
 10
493.0022650816276
 20
399.7467436066309
 30
0.0
 10
496.711542333043
 20
398.1073366743608
 30
0.0
 10
498.7638284476376
 20
397.3336933729947
 30
0.0
 10
502.0515356411952
 20
396.3529726030643
 30
0.0
 10
503.1874563805283
 20
396.0537480220724
 30
0.0
 10
505.5464797608786
 20
395.5226793573238
 30
0.0
 10
506.7780655053509
 20
395.2901393929515
 30
0.0
 10
510.4918534362976
 20
394.7313656404226
 30
0.0
 10
513.0233203802206
 20
394.5339164378534
 30
0.0
 10
516.909212645552
 20
394.5289394179604
 30
0.0
 10
518.2149611170706
 20
394.5770720406026
 30
0.0
 10
520.766613558981
 20
394.7663714231553
 30
0.0
 10
522.0237989189289
 20
394.9073537671793
 30
0.0
 10
525.7412216537817
 20
395.4606429818759
 30
0.0
 10
528.1448039069259
 20
396.0083139876278
 30
0.0
 10
532.5663353298337
 20
397.3225175216421
 30
0.0
 10
534.6379155031946
 20
398.1035037638753
 30
0.0
 10
538.336920334108
 20
399.7369203331846
 30
0.0
 10
539.9923060481901
 20
400.5987121049875
 30
0.0
 10
541.4348887678166
 20
401.4315876264945
 30
0.0
  0
LINE
  5
7158A
330
717DC
100
AcDbEntity
  8
Level 26
 62
     7
370
    13
100
AcDbLine
 10
547.494889
 20
390.93536
 30
0.0
 11
541.434889
 21
401.431588
 31
0.0
  0
LINE
  5
7158B
330
717DC
100
AcDbEntity
  8
Level 26
 62
     7
370
    13
100
AcDbLine
 10
515.679889
 20
357.160556
 30
0.0
 11
515.679889
 21
394.573707
 31
0.0
  0
ENDBLK
  5
717DE
330
717DC
100
AcDbEntity
  8
0
 62
    98
370
     0
100
AcDbBlockEnd
  0
BLOCK
  5
717E0
330
717DF
100
AcDbEntity
  8
0
 62
    98
370
     0
100
AcDbBlockBegin
  2
Feature Solid_47
 70
     0
 10
0.0
 20
0.0
 30
0.0
  3
Feature Solid_47
  1

  0
INSERT
  5
7158E
330
717DF
100
AcDbEntity
  8
Level 26
 62
     7
370
    13
100
AcDbBlockReference
  2
DDREVL_5
 10
0.0
 20
0.0
 30
0.0
  0
ENDBLK
  5
717E1
330
717DF
100
AcDbEntity
  8
0
 62
    98
370
     0
100
AcDbBlockEnd
  0
BLOCK
  5
717E3
330
717E2
100
AcDbEntity
  8
0
 62
    98
370
     0
100
AcDbBlockBegin
  2
DDREVL_5
 70
     0
 10
0.0
 20
0.0
 30
0.0
  3
DDREVL_5
  1

  0
ARC
  5
7158F
330
717E2
100
AcDbEntity
  8
Level 26
 62
     7
370
    13
100
AcDbCircle
 10
-515.679889
 20
459.170556
 30
0.0
 40
51.51000000000893
210
0.0
220
0.0
230
-1.0
100
AcDbArc
 50
66.031879
 51
293.968121
  0
ARC
  5
71590
330
717E2
100
AcDbEntity
  8
Level 26
 62
     7
370
    13
100
AcDbCircle
 10
-515.679889
 20
459.170556
 30
0.0
 40
62.62000000000902
210
0.0
220
0.0
230
-1.0
100
AcDbArc
 50
82.71853
 51
277.28147
  0
LINE
  5
71591
330
717E2
100
AcDbEntity
  8
Level 26
 62
     7
370
    13
100
AcDbLine
 10
471.07092
 20
433.415556
 30
0.0
 11
471.07092
 21
433.415556
 31
0.0
  0
POINT
  5
71592
330
717E2
100
AcDbEntity
  8
Level 26
 62
     7
370
    13
100
AcDbPoint
 10
515.679889
 20
510.680556
 30
0.0
  0
POINT
  5
71593
330
717E2
100
AcDbEntity
  8
Level 26
 62
     7
370
    13
100
AcDbPoint
 10
464.169889
 20
459.170556
 30
0.0
  0
POINT
  5
71594
330
717E2
100
AcDbEntity
  8
Level 26
 62
     7
370
    13
100
AcDbPoint
 10
464.169889
 20
459.170556
 30
0.0
  0
LINE
  5
71595
330
717E2
100
AcDbEntity
  8
Level 26
 62
     7
370
    13
100
AcDbLine
 10
515.679889
 20
407.660556
 30
0.0
 11
515.679889
 21
407.660556
 31
0.0
  0
POINT
  5
71596
330
717E2
100
AcDbEntity
  8
Level 26
 62
     7
370
    13
100
AcDbPoint
 10
567.189889
 20
459.170556
 30
0.0
  0
ARC
  5
71597
330
717E2
100
AcDbEntity
  8
Level 26
 62
     7
370
    13
100
AcDbCircle
 10
-515.679889
 20
459.170556
 30
0.0
 40
78.78000000000908
210
0.0
220
0.0
230
-1.0
100
AcDbArc
 50
33.871143
 51
90.0
  0
ARC
  5
71598
330
717E2
100
AcDbEntity
  8
Level 26
 62
     7
370
    13
100
AcDbCircle
 10
-515.679889
 20
459.170556
 30
0.0
 40
78.78000000000908
210
0.0
220
0.0
230
-1.0
100
AcDbArc
 50
90.0
 51
326.128272
  0
LINE
  5
71599
330
717E2
100
AcDbEntity
  8
Level 26
 62
     7
370
    13
100
AcDbLine
 10
441.633043
 20
459.170556
 30
0.0
 11
438.97878
 21
459.170556
 31
0.0
  0
LINE
  5
7159A
330
717E2
100
AcDbEntity
  8
Level 26
 62
     7
370
    13
100
AcDbLine
 10
515.679889
 20
396.550556
 30
0.0
 11
515.679889
 21
380.390556
 31
0.0
  0
LINE
  5
7159B
330
717E2
100
AcDbEntity
  8
Level 26
 62
     7
370
    13
100
AcDbLine
 10
578.299889
 20
459.170556
 30
0.0
 11
594.459889
 21
459.170556
 31
0.0
  0
LINE
  5
7159C
330
717E2
100
AcDbEntity
  8
Level 26
 62
     7
370
    13
100
AcDbLine
 10
515.679889
 20
537.950556
 30
0.0
 11
515.679889
 21
521.790556
 31
0.0
  0
ENDBLK
  5
717E4
330
717E2
100
AcDbEntity
  8
0
 62
    98
370
     0
100
AcDbBlockEnd
  0
BLOCK
  5
717E6
330
717E5
100
AcDbEntity
  8
0
 62
    98
370
     0
100
AcDbBlockBegin
  2
Feature Solid_48
 70
     0
 10
0.0
 20
0.0
 30
0.0
  3
Feature Solid_48
  1

  0
INSERT
  5
715CA
330
717E5
100
AcDbEntity
  8
Level 25
  6
Continuous
 62
   253
370
    13
100
AcDbBlockReference
  2
EXTEND
 10
-574.477138
 20
988.541959
 30
0.0
  0
ENDBLK
  5
717E7
330
717E5
100
AcDbEntity
  8
0
 62
    98
370
     0
100
AcDbBlockEnd
  0
BLOCK
  5
717E9
330
717E8
100
AcDbEntity
  8
0
 62
    98
370
     0
100
AcDbBlockBegin
  2
EXTEND
 70
     0
 10
0.0
 20
0.0
 30
0.0
  3
EXTEND
  1

  0
INSERT
  5
715CB
330
717E8
100
AcDbEntity
  8
Level 25
  6
Continuous
 62
   253
370
    13
100
AcDbBlockReference
  2
UNITE_16
 10
8078.146954
 20
459.287898
 30
0.0
  0
LINE
  5
715D7
330
717E8
100
AcDbEntity
  8
Level 25
  6
Continuous
 62
   253
370
    13
100
AcDbLine
 10
1168.647688
 20
-1012.542137
 30
0.0
 11
1168.647688
 21
-964.542137
 31
0.0
  0
ENDBLK
  5
717EA
330
717E8
100
AcDbEntity
  8
0
 62
    98
370
     0
100
AcDbBlockEnd
  0
BLOCK
  5
717EC
330
717EB
100
AcDbEntity
  8
0
 62
    98
370
     0
100
AcDbBlockBegin
  2
UNITE_16
 70
     0
 10
0.0
 20
0.0
 30
0.0
  3
UNITE_16
  1

  0
INSERT
  5
715CF
330
717EB
100
AcDbEntity
  8
Level 25
  6
Continuous
 62
   253
370
    13
100
AcDbBlockReference
  2
Feature Solid_49
 10
100.0
 20
0.0
 30
0.0
  0
ENDBLK
  5
717ED
330
717EB
100
AcDbEntity
  8
0
 62
    98
370
     0
100
AcDbBlockEnd
  0
BLOCK
  5
717EF
330
717EE
100
AcDbEntity
  8
0
 62
    98
370
     0
100
AcDbBlockBegin
  2
Feature Solid_49
 70
     0
 10
0.0
 20
0.0
 30
0.0
  3
Feature Solid_49
  1

  0
INSERT
  5
715D0
330
717EE
100
AcDbEntity
  8
Level 25
  6
Continuous
 62
   253
370
    13
100
AcDbBlockReference
  2
CUT
 10
0.0
 20
0.0
 30
0.0
  0
ENDBLK
  5
717F0
330
717EE
100
AcDbEntity
  8
0
 62
    98
370
     0
100
AcDbBlockEnd
  0
BLOCK
  5
717F2
330
717F1
100
AcDbEntity
  8
0
 62
    98
370
     0
100
AcDbBlockBegin
  2
CUT
 70
     0
 10
0.0
 20
0.0
 30
0.0
  3
CUT
  1

  0
INSERT
  5
715D1
330
717F1
100
AcDbEntity
  8
Level 25
  6
Continuous
 62
   253
370
    13
100
AcDbBlockReference
  2
DDPROJ
 10
0.0
 20
0.0
 30
0.0
  0
ENDBLK
  5
717F3
330
717F1
100
AcDbEntity
  8
0
 62
    98
370
     0
100
AcDbBlockEnd
  0
BLOCK
  5
717F5
330
717F4
100
AcDbEntity
  8
0
 62
    98
370
     0
100
AcDbBlockBegin
  2
DDPROJ
 70
     0
 10
0.0
 20
0.0
 30
0.0
  3
DDPROJ
  1

  0
LINE
  5
715D2
330
717F4
100
AcDbEntity
  8
Level 25
  6
Continuous
 62
   253
370
    13
100
AcDbLine
 10
-8197.839912
 20
-1471.830035
 30
0.0
 11
-8197.839912
 21
-1423.830035
 31
0.0
  0
LINE
  5
715D3
330
717F4
100
AcDbEntity
  8
Level 25
  6
Continuous
 62
   253
370
    13
100
AcDbLine
 10
-7009.499266
 20
-1447.830035
 30
0.0
 11
-8197.839912
 21
-1447.830035
 31
0.0
  0
LINE
  5
715D4
330
717F4
100
AcDbEntity
  8
Level 25
  6
Continuous
 62
   253
370
    13
100
AcDbLine
 10
-7009.499266
 20
-1423.830035
 30
0.0
 11
-8197.839912
 21
-1423.830035
 31
0.0
  0
LINE
  5
715D5
330
717F4
100
AcDbEntity
  8
Level 25
  6
Continuous
 62
   253
370
    13
100
AcDbLine
 10
-7009.499266
 20
-1447.830035
 30
0.0
 11
-8197.839912
 21
-1447.830035
 31
0.0
  0
LINE
  5
715D6
330
717F4
100
AcDbEntity
  8
Level 25
  6
Continuous
 62
   253
370
    13
100
AcDbLine
 10
-7009.499266
 20
-1471.830035
 30
0.0
 11
-8197.839912
 21
-1471.830035
 31
0.0
  0
ENDBLK
  5
717F6
330
717F4
100
AcDbEntity
  8
0
 62
    98
370
     0
100
AcDbBlockEnd
  0
BLOCK
  5
717F8
330
717F7
100
AcDbEntity
  8
0
 62
    98
370
     0
100
AcDbBlockBegin
  2
Smart Solid
 70
     0
 10
0.0
 20
0.0
 30
0.0
  3
Smart Solid
  1

  0
LINE
  5
715D9
330
717F7
100
AcDbEntity
  8
Level 26
  6
Continuous
 62
     7
370
    13
100
AcDbLine
 10
-450.0
 20
50.0
 30
0.0
 11
450.0
 21
50.0
 31
0.0
  0
ARC
  5
715DA
330
717F7
100
AcDbEntity
  8
Level 26
  6
Continuous
 62
     7
370
    13
100
AcDbCircle
 10
-450.0
 20
0.0
 30
0.0
 40
50.0
210
0.0
220
0.0
230
-1.0
100
AcDbArc
 50
90.0
 51
270.0
  0
ARC
  5
715DB
330
717F7
100
AcDbEntity
  8
Level 26
  6
Continuous
 62
     7
370
    13
100
AcDbCircle
 10
450.0
 20
0.0
 30
0.0
 40
50.0
210
0.0
220
0.0
230
-1.0
100
AcDbArc
 50
270.0
 51
90.0
  0
LINE
  5
715DC
330
717F7
100
AcDbEntity
  8
Level 26
  6
Continuous
 62
     7
370
    13
100
AcDbLine
 10
450.0
 20
-45.0
 30
0.0
 11
-450.0
 21
-45.0
 31
0.0
  0
ARC
  5
715DD
330
717F7
100
AcDbEntity
  8
Level 26
  6
Continuous
 62
     7
370
    13
100
AcDbCircle
 10
-450.0
 20
0.0
 30
0.0
 40
45.0
100
AcDbArc
 50
90.0
 51
270.0
  0
ARC
  5
715DE
330
717F7
100
AcDbEntity
  8
Level 26
  6
Continuous
 62
     7
370
    13
100
AcDbCircle
 10
450.0
 20
0.0
 30
0.0
 40
45.0
100
AcDbArc
 50
270.0
 51
90.0
  0
LINE
  5
715DF
330
717F7
100
AcDbEntity
  8
Level 26
  6
Continuous
 62
     7
370
    13
100
AcDbLine
 10
-450.0
 20
45.0
 30
0.0
 11
450.0
 21
45.0
 31
0.0
  0
LINE
  5
715E0
330
717F7
100
AcDbEntity
  8
Level 26
  6
Continuous
 62
     7
370
    13
100
AcDbLine
 10
450.0
 20
-50.0
 30
0.0
 11
-450.0
 21
-50.0
 31
0.0
  0
POINT
  5
715E1
330
717F7
100
AcDbEntity
  8
Level 26
  6
Continuous
 62
     7
370
    13
100
AcDbPoint
 10
450.0
 20
50.0
 30
0.0
  0
POINT
  5
715E2
330
717F7
100
AcDbEntity
  8
Level 26
  6
Continuous
 62
     7
370
    13
100
AcDbPoint
 10
450.0
 20
-50.0
 30
0.0
  0
POINT
  5
715E3
330
717F7
100
AcDbEntity
  8
Level 26
  6
Continuous
 62
     7
370
    13
100
AcDbPoint
 10
-450.0
 20
-50.0
 30
0.0
  0
POINT
  5
715E4
330
717F7
100
AcDbEntity
  8
Level 26
  6
Continuous
 62
     7
370
    13
100
AcDbPoint
 10
-450.0
 20
50.0
 30
0.0
  0
LINE
  5
715E5
330
717F7
100
AcDbEntity
  8
Level 26
  6
Continuous
 62
     7
370
    13
100
AcDbLine
 10
450.0
 20
-50.0
 30
0.0
 11
-450.0
 21
-50.0
 31
0.0
  0
ARC
  5
715E6
330
717F7
100
AcDbEntity
  8
Level 26
  6
Continuous
 62
     7
370
    13
100
AcDbCircle
 10
-450.0
 20
0.0
 30
0.0
 40
50.0
210
0.0
220
0.0
230
-1.0
100
AcDbArc
 50
90.0
 51
270.0
  0
LINE
  5
715E7
330
717F7
100
AcDbEntity
  8
Level 26
  6
Continuous
 62
     7
370
    13
100
AcDbLine
 10
-450.0
 20
50.0
 30
0.0
 11
450.0
 21
50.0
 31
0.0
  0
ARC
  5
715E8
330
717F7
100
AcDbEntity
  8
Level 26
  6
Continuous
 62
     7
370
    13
100
AcDbCircle
 10
450.0
 20
0.0
 30
0.0
 40
50.0
210
0.0
220
0.0
230
-1.0
100
AcDbArc
 50
270.0
 51
90.0
  0
LINE
  5
715E9
330
717F7
100
AcDbEntity
  8
Level 26
  6
Continuous
 62
     7
370
    13
100
AcDbLine
 10
450.0
 20
45.0
 30
0.0
 11
450.0
 21
50.0
 31
0.0
  0
LINE
  5
715EA
330
717F7
100
AcDbEntity
  8
Level 26
  6
Continuous
 62
     7
370
    13
100
AcDbLine
 10
-450.0
 20
45.0
 30
0.0
 11
-450.0
 21
50.0
 31
0.0
  0
LINE
  5
715EB
330
717F7
100
AcDbEntity
  8
Level 26
  6
Continuous
 62
     7
370
    13
100
AcDbLine
 10
450.0
 20
-50.0
 30
0.0
 11
450.0
 21
-45.0
 31
0.0
  0
LINE
  5
715EC
330
717F7
100
AcDbEntity
  8
Level 26
  6
Continuous
 62
     7
370
    13
100
AcDbLine
 10
-450.0
 20
-50.0
 30
0.0
 11
-450.0
 21
-45.0
 31
0.0
  0
POINT
  5
715ED
330
717F7
100
AcDbEntity
  8
Level 26
  6
Continuous
 62
     7
370
    13
100
AcDbPoint
 10
500.0
 20
0.0
 30
0.0
  0
POINT
  5
715EE
330
717F7
100
AcDbEntity
  8
Level 26
  6
Continuous
 62
     7
370
    13
100
AcDbPoint
 10
450.0
 20
50.0
 30
0.0
  0
POINT
  5
715EF
330
717F7
100
AcDbEntity
  8
Level 26
  6
Continuous
 62
     7
370
    13
100
AcDbPoint
 10
-500.0
 20
0.0
 30
0.0
  0
POINT
  5
715F0
330
717F7
100
AcDbEntity
  8
Level 26
  6
Continuous
 62
     7
370
    13
100
AcDbPoint
 10
-450.0
 20
-50.0
 30
0.0
  0
LINE
  5
715F1
330
717F7
100
AcDbEntity
  8
Level 26
  6
Continuous
 62
     7
370
    13
100
AcDbLine
 10
500.0
 20
0.0
 30
0.0
 11
495.0
 21
0.0
 31
0.0
  0
LINE
  5
715F2
330
717F7
100
AcDbEntity
  8
Level 26
  6
Continuous
 62
     7
370
    13
100
AcDbLine
 10
450.0
 20
50.0
 30
0.0
 11
450.0
 21
45.0
 31
0.0
  0
LINE
  5
715F3
330
717F7
100
AcDbEntity
  8
Level 26
  6
Continuous
 62
     7
370
    13
100
AcDbLine
 10
-500.0
 20
0.0
 30
0.0
 11
-495.0
 21
0.0
 31
0.0
  0
LINE
  5
715F4
330
717F7
100
AcDbEntity
  8
Level 26
  6
Continuous
 62
     7
370
    13
100
AcDbLine
 10
-450.0
 20
-50.0
 30
0.0
 11
-450.0
 21
-45.0
 31
0.0
  0
ENDBLK
  5
717F9
330
717F7
100
AcDbEntity
  8
0
 62
    98
370
     0
100
AcDbBlockEnd
  0
ENDSEC
  0
SECTION
  2
ENTITIES
  0
INSERT
  5
71448
330
71610
100
AcDbEntity
  8
Level 26
 62
     7
370
    13
100
AcDbBlockReference
  2
A3015S
 10
2241.049688
 20
-38.845474
 30
0.0
  0
LWPOLYLINE
  5
715FD
330
71610
100
AcDbEntity
  8
Level 15
  6
DGN Style 2
 62
     7
370
    13
100
AcDbPolyline
 90
        5
 70
   129
 43
0.0
 10
3540.428056
 20
1541.154526
 42
-1.0
 10
3540.428056
 20
-1618.845474
 10
2241.049688
 20
-1618.845474
 42
-1.0
 10
2241.049688
 20
1541.154526
 10
3540.428056
 20
1541.154526
  0
ENDSEC
  0
SECTION
  2
OBJECTS
  0
DICTIONARY
  5
71617
330
0
100
AcDbDictionary
281
     1
  3
ACAD_COLOR
350
71655
  3
ACAD_GROUP
350
71642
  3
ACAD_LAYOUT
350
71624
  3
ACAD_MATERIAL
350
71619
  3
ACAD_MLEADERSTYLE
350
71658
  3
ACAD_MLINESTYLE
350
71643
  3
ACAD_PLOTSETTINGS
350
71644
  3
ACAD_PLOTSTYLENAME
350
71616
  3
ACAD_SCALELIST
350
71656
  3
ACAD_TABLESTYLE
350
71657
  3
ACAD_VISUALSTYLE
350
7163C
  3
ACDB_RECOMPOSE_DATA
350
71806
  3
AcDbVariableDictionary
350
717FC
  0
DICTIONARY
  5
7162F
330
7162E
100
AcDbDictionary
280
     1
281
     1
  3
ACAD_LAYERFILTERS
360
71682
  3
ACAD_LAYERSTATES
360
71630
  3
ACLYDICTIONARY
360
71683
  0
DICTIONARY
  5
71613
330
71612
100
AcDbDictionary
280
     1
281
     1
  3
ADSK_XREC_LAYER_RECONCILED
360
71614
  0
DICTIONARY
  5
71655
102
{ACAD_REACTORS
330
71617
102
}
330
71617
100
AcDbDictionary
281
     1
  0
DICTIONARY
  5
71642
102
{ACAD_REACTORS
330
71617
102
}
330
71617
100
AcDbDictionary
281
     1
  0
DICTIONARY
  5
71624
102
{ACAD_REACTORS
330
71617
102
}
330
71617
100
AcDbDictionary
281
     1
  3
Layout1
350
7162A
  3
Model
350
71623
  0
DICTIONARY
  5
71619
102
{ACAD_REACTORS
330
71617
102
}
330
71617
100
AcDbDictionary
281
     1
  3
ByBlock
350
7164D
  3
ByLayer
350
71645
  3
Global
350
71618
  0
DICTIONARY
  5
71658
102
{ACAD_REACTORS
330
71617
102
}
330
71617
100
AcDbDictionary
281
     1
  0
DICTIONARY
  5
71643
102
{ACAD_REACTORS
330
71617
102
}
330
71617
100
AcDbDictionary
281
     1
  3
Standard
350
71659
  0
DICTIONARY
  5
71644
102
{ACAD_REACTORS
330
71617
102
}
330
71617
100
AcDbDictionary
281
     1
  0
ACDBDICTIONARYWDFLT
  5
71616
102
{ACAD_REACTORS
330
71617
102
}
330
71617
100
AcDbDictionary
281
     1
  3
Normal
350
71615
100
AcDbDictionaryWithDefault
340
71615
  0
DICTIONARY
  5
71656
102
{ACAD_REACTORS
330
71617
102
}
330
71617
100
AcDbDictionary
281
     1
  3
A0
350
7165E
  3
A1
350
7165F
  3
A2
350
71660
  3
A3
350
71661
  3
A4
350
71662
  3
A5
350
71663
  3
A6
350
71664
  3
A7
350
71665
  3
A8
350
71666
  3
A9
350
71667
  3
B0
350
71668
  3
B1
350
71669
  3
B2
350
7166A
  3
B3
350
7166B
  3
B4
350
7166C
  3
B5
350
7166D
  3
B6
350
7166E
  3
B7
350
7166F
  3
B8
350
71670
  3
B9
350
71671
  3
C0
350
71672
  3
C1
350
71673
  3
C2
350
71674
  3
C3
350
71675
  3
C4
350
71676
  3
C5
350
71677
  3
C6
350
71678
  3
C7
350
71679
  3
C8
350
7167A
  3
C9
350
7167B
  3
D0
350
7167C
  3
D1
350
7167D
  3
D2
350
7167E
  0
DICTIONARY
  5
71657
102
{ACAD_REACTORS
330
71617
102
}
330
71617
100
AcDbDictionary
281
     1
  3
Standard
350
7165A
  0
DICTIONARY
  5
7163C
102
{ACAD_REACTORS
330
71617
102
}
330
71617
100
AcDbDictionary
281
     1
  3
2dWireframe
350
7163B
  3
Realistic
350
7165C
  3
Wireframe
350
7165D
  0
XRECORD
  5
71806
102
{ACAD_REACTORS
330
71617
102
}
330
71617
100
AcDbXrecord
280
     1
 90
        1
330
7165A
  0
DICTIONARY
  5
717FC
102
{ACAD_REACTORS
330
71617
102
}
330
71617
100
AcDbDictionary
281
     1
  3
CANNOSCALE
350
71802
  3
CMLEADERSTYLE
350
717FE
  3
CTABLESTYLE
350
717FD
  3
CVIEWDETAILSTYLE
350
717FF
  3
CVIEWSECTIONSTYLE
350
71800
  3
LAYEREVAL
350
71803
  3
LAYERNOTIFY
350
71804
  3
MSLTSCALE
350
71801
  0
DICTIONARY
  5
71682
102
{ACAD_REACTORS
330
7162F
102
}
330
7162F
100
AcDbDictionary
281
     1
  0
DICTIONARY
  5
71630
102
{ACAD_REACTORS
330
7162F
102
}
330
7162F
100
AcDbDictionary
281
     1
  0
DICTIONARY
  5
71683
102
{ACAD_REACTORS
330
7162F
102
}
330
7162F
100
AcDbDictionary
281
     1
  0
XRECORD
  5
71614
102
{ACAD_REACTORS
330
71613
102
}
330
71613
100
AcDbXrecord
280
     1
290
     1
  0
LAYOUT
  5
7162A
102
{ACAD_XDICTIONARY
360
7162B
102
}
102
{ACAD_REACTORS
330
71624
102
}
330
71624
100
AcDbPlotSettings
  1

  2
none_device
  4
Letter_(8.50_x_11.00_Inches)
  6

 40
6.35
 41
6.35
 42
6.350006
 43
6.350006
 44
215.899994
 45
279.399994
 46
0.0
 47
0.0
 48
0.0
 49
0.0
140
0.0
141
0.0
142
1.0
143
1.0
 70
   688
 72
     0
 73
     1
 74
     5
  7

 75
    16
147
1.0
 76
     0
 77
     2
 78
   300
148
0.0
149
0.0
100
AcDbLayout
  1
Layout1
 70
     1
 71
     1
 10
-0.25
 20
-0.25
 11
10.75
 21
8.25
 12
0.0
 22
0.0
 32
0.0
 14
1.05
 24
0.8
 34
0.0
 15
9.45
 25
7.2
 35
0.0
146
0.0
 13
0.0
 23
0.0
 33
0.0
 16
1.0
 26
0.0
 36
0.0
 17
0.0
 27
1.0
 37
0.0
 76
     0
330
71627
1001
ACAD_PSEXT
1000
None
1000
None
1000
Not applicable
1000
The layout will not be plotted unless a new plotter configuration name is selected.
1070
     0
  0
LAYOUT
  5
71623
102
{ACAD_XDICTIONARY
360
71625
102
}
102
{ACAD_REACTORS
330
71624
102
}
330
71624
100
AcDbPlotSettings
  1

  2
none_device
  4
ANSI_A_(8.50_x_11.00_Inches)
  6

 40
6.35
 41
19.049999
 42
6.350006
 43
19.049988
 44
215.899994
 45
279.399994
 46
0.0
 47
0.0
 48
0.0
 49
0.0
140
0.0
141
0.0
142
1.0
143
2.584895
 70
 11952
 72
     0
 73
     1
 74
     0
  7

 75
     0
147
0.386863
 76
     0
 77
     2
 78
   300
148
0.0
149
0.0
100
AcDbLayout
  1
Model
 70
     1
 71
     0
 10
0.0
 20
0.0
 11
12.0
 21
9.0
 12
0.0
 22
0.0
 32
0.0
 14
0.0
 24
0.0
 34
0.0
 15
0.0
 25
0.0
 35
0.0
146
0.0
 13
0.0
 23
0.0
 33
0.0
 16
1.0
 26
0.0
 36
0.0
 17
0.0
 27
1.0
 37
0.0
 76
     0
330
71610
331
7163A
  0
MATERIAL
  5
7164D
102
{ACAD_XDICTIONARY
360
7164E
102
}
102
{ACAD_REACTORS
330
71619
102
}
330
71619
100
AcDbMaterial
  1
ByBlock
 72
     0
 43
0.020833
 43
0.0
 43
0.0
 43
0.0
 43
0.0
 43
0.020833
 43
0.0
 43
0.0
 43
0.0
 43
0.0
 43
1.0
 43
0.0
 43
0.0
 43
0.0
 43
0.0
 43
1.0
 77
     0
 47
0.020833
 47
0.0
 47
0.0
 47
0.0
 47
0.0
 47
0.020833
 47
0.0
 47
0.0
 47
0.0
 47
0.0
 47
1.0
 47
0.0
 47
0.0
 47
0.0
 47
0.0
 47
1.0
171
     0
 49
0.020833
 49
0.0
 49
0.0
 49
0.0
 49
0.0
 49
0.020833
 49
0.0
 49
0.0
 49
0.0
 49
0.0
 49
1.0
 49
0.0
 49
0.0
 49
0.0
 49
0.0
 49
1.0
175
     0
142
0.020833
142
0.0
142
0.0
142
0.0
142
0.0
142
0.020833
142
0.0
142
0.0
142
0.0
142
0.0
142
1.0
142
0.0
142
0.0
142
0.0
142
0.0
142
1.0
179
     0
144
0.020833
144
0.0
144
0.0
144
0.0
144
0.0
144
0.020833
144
0.0
144
0.0
144
0.0
144
0.0
144
1.0
144
0.0
144
0.0
144
0.0
144
0.0
144
1.0
147
0.020833
147
0.0
147
0.0
147
0.0
147
0.0
147
0.020833
147
0.0
147
0.0
147
0.0
147
0.0
147
1.0
147
0.0
147
0.0
147
0.0
147
0.0
147
1.0
  0
MATERIAL
  5
71645
102
{ACAD_XDICTIONARY
360
71646
102
}
102
{ACAD_REACTORS
330
71619
102
}
330
71619
100
AcDbMaterial
  1
ByLayer
 72
     0
 43
0.020833
 43
0.0
 43
0.0
 43
0.0
 43
0.0
 43
0.020833
 43
0.0
 43
0.0
 43
0.0
 43
0.0
 43
1.0
 43
0.0
 43
0.0
 43
0.0
 43
0.0
 43
1.0
 77
     0
 47
0.020833
 47
0.0
 47
0.0
 47
0.0
 47
0.0
 47
0.020833
 47
0.0
 47
0.0
 47
0.0
 47
0.0
 47
1.0
 47
0.0
 47
0.0
 47
0.0
 47
0.0
 47
1.0
171
     0
 49
0.020833
 49
0.0
 49
0.0
 49
0.0
 49
0.0
 49
0.020833
 49
0.0
 49
0.0
 49
0.0
 49
0.0
 49
1.0
 49
0.0
 49
0.0
 49
0.0
 49
0.0
 49
1.0
175
     0
142
0.020833
142
0.0
142
0.0
142
0.0
142
0.0
142
0.020833
142
0.0
142
0.0
142
0.0
142
0.0
142
1.0
142
0.0
142
0.0
142
0.0
142
0.0
142
1.0
179
     0
144
0.020833
144
0.0
144
0.0
144
0.0
144
0.0
144
0.020833
144
0.0
144
0.0
144
0.0
144
0.0
144
1.0
144
0.0
144
0.0
144
0.0
144
0.0
144
1.0
147
0.020833
147
0.0
147
0.0
147
0.0
147
0.0
147
0.020833
147
0.0
147
0.0
147
0.0
147
0.0
147
1.0
147
0.0
147
0.0
147
0.0
147
0.0
147
1.0
  0
MATERIAL
  5
71618
102
{ACAD_XDICTIONARY
360
7161A
102
}
102
{ACAD_REACTORS
330
71619
102
}
330
71619
100
AcDbMaterial
  1
Global
 72
     0
 43
0.020833
 43
0.0
 43
0.0
 43
0.0
 43
0.0
 43
0.020833
 43
0.0
 43
0.0
 43
0.0
 43
0.0
 43
1.0
 43
0.0
 43
0.0
 43
0.0
 43
0.0
 43
1.0
 77
     0
 47
0.020833
 47
0.0
 47
0.0
 47
0.0
 47
0.0
 47
0.020833
 47
0.0
 47
0.0
 47
0.0
 47
0.0
 47
1.0
 47
0.0
 47
0.0
 47
0.0
 47
0.0
 47
1.0
171
     0
 49
0.020833
 49
0.0
 49
0.0
 49
0.0
 49
0.0
 49
0.020833
 49
0.0
 49
0.0
 49
0.0
 49
0.0
 49
1.0
 49
0.0
 49
0.0
 49
0.0
 49
0.0
 49
1.0
175
     0
142
0.020833
142
0.0
142
0.0
142
0.0
142
0.0
142
0.020833
142
0.0
142
0.0
142
0.0
142
0.0
142
1.0
142
0.0
142
0.0
142
0.0
142
0.0
142
1.0
179
     0
144
0.020833
144
0.0
144
0.0
144
0.0
144
0.0
144
0.020833
144
0.0
144
0.0
144
0.0
144
0.0
144
1.0
144
0.0
144
0.0
144
0.0
144
0.0
144
1.0
147
0.020833
147
0.0
147
0.0
147
0.0
147
0.0
147
0.020833
147
0.0
147
0.0
147
0.0
147
0.0
147
1.0
147
0.0
147
0.0
147
0.0
147
0.0
147
1.0
  0
MLINESTYLE
  5
71659
102
{ACAD_REACTORS
330
71643
102
}
330
71643
100
AcDbMlineStyle
  2
STANDARD
 70
     0
  3

 62
   256
 51
90.0
 52
90.0
 71
     2
 49
0.5
 62
   256
  6
BYLAYER
 49
-0.5
 62
   256
  6
BYLAYER
  0
ACDBPLACEHOLDER
  5
71615
102
{ACAD_REACTORS
330
71616
102
}
330
71616
  0
SCALE
  5
7165E
102
{ACAD_REACTORS
330
71656
102
}
330
71656
100
AcDbScale
 70
     0
300
1:1
140
1.0
141
1.0
290
     1
  0
SCALE
  5
7165F
102
{ACAD_REACTORS
330
71656
102
}
330
71656
100
AcDbScale
 70
     0
300
1:2
140
1.0
141
2.0
290
     0
  0
SCALE
  5
71660
102
{ACAD_REACTORS
330
71656
102
}
330
71656
100
AcDbScale
 70
     0
300
1:4
140
1.0
141
4.0
290
     0
  0
SCALE
  5
71661
102
{ACAD_REACTORS
330
71656
102
}
330
71656
100
AcDbScale
 70
     0
300
1:5
140
1.0
141
5.0
290
     0
  0
SCALE
  5
71662
102
{ACAD_REACTORS
330
71656
102
}
330
71656
100
AcDbScale
 70
     0
300
1:8
140
1.0
141
8.0
290
     0
  0
SCALE
  5
71663
102
{ACAD_REACTORS
330
71656
102
}
330
71656
100
AcDbScale
 70
     0
300
1:10
140
1.0
141
10.0
290
     0
  0
SCALE
  5
71664
102
{ACAD_REACTORS
330
71656
102
}
330
71656
100
AcDbScale
 70
     0
300
1:16
140
1.0
141
16.0
290
     0
  0
SCALE
  5
71665
102
{ACAD_REACTORS
330
71656
102
}
330
71656
100
AcDbScale
 70
     0
300
1:20
140
1.0
141
20.0
290
     0
  0
SCALE
  5
71666
102
{ACAD_REACTORS
330
71656
102
}
330
71656
100
AcDbScale
 70
     0
300
1:30
140
1.0
141
30.0
290
     0
  0
SCALE
  5
71667
102
{ACAD_REACTORS
330
71656
102
}
330
71656
100
AcDbScale
 70
     0
300
1:40
140
1.0
141
40.0
290
     0
  0
SCALE
  5
71668
102
{ACAD_REACTORS
330
71656
102
}
330
71656
100
AcDbScale
 70
     0
300
1:50
140
1.0
141
50.0
290
     0
  0
SCALE
  5
71669
102
{ACAD_REACTORS
330
71656
102
}
330
71656
100
AcDbScale
 70
     0
300
1:100
140
1.0
141
100.0
290
     0
  0
SCALE
  5
7166A
102
{ACAD_REACTORS
330
71656
102
}
330
71656
100
AcDbScale
 70
     0
300
2:1
140
2.0
141
1.0
290
     0
  0
SCALE
  5
7166B
102
{ACAD_REACTORS
330
71656
102
}
330
71656
100
AcDbScale
 70
     0
300
4:1
140
4.0
141
1.0
290
     0
  0
SCALE
  5
7166C
102
{ACAD_REACTORS
330
71656
102
}
330
71656
100
AcDbScale
 70
     0
300
8:1
140
8.0
141
1.0
290
     0
  0
SCALE
  5
7166D
102
{ACAD_REACTORS
330
71656
102
}
330
71656
100
AcDbScale
 70
     0
300
10:1
140
10.0
141
1.0
290
     0
  0
SCALE
  5
7166E
102
{ACAD_REACTORS
330
71656
102
}
330
71656
100
AcDbScale
 70
     0
300
100:1
140
100.0
141
1.0
290
     0
  0
SCALE
  5
7166F
102
{ACAD_REACTORS
330
71656
102
}
330
71656
100
AcDbScale
 70
     0
300
1/128" = 1'-0"
140
0.007813
141
12.0
290
     0
  0
SCALE
  5
71670
102
{ACAD_REACTORS
330
71656
102
}
330
71656
100
AcDbScale
 70
     0
300
1/64" = 1'-0"
140
0.015625
141
12.0
290
     0
  0
SCALE
  5
71671
102
{ACAD_REACTORS
330
71656
102
}
330
71656
100
AcDbScale
 70
     0
300
1/32" = 1'-0"
140
0.03125
141
12.0
290
     0
  0
SCALE
  5
71672
102
{ACAD_REACTORS
330
71656
102
}
330
71656
100
AcDbScale
 70
     0
300
1/16" = 1'-0"
140
0.0625
141
12.0
290
     0
  0
SCALE
  5
71673
102
{ACAD_REACTORS
330
71656
102
}
330
71656
100
AcDbScale
 70
     0
300
3/32" = 1'-0"
140
0.09375
141
12.0
290
     0
  0
SCALE
  5
71674
102
{ACAD_REACTORS
330
71656
102
}
330
71656
100
AcDbScale
 70
     0
300
1/8" = 1'-0"
140
0.125
141
12.0
290
     0
  0
SCALE
  5
71675
102
{ACAD_REACTORS
330
71656
102
}
330
71656
100
AcDbScale
 70
     0
300
3/16" = 1'-0"
140
0.1875
141
12.0
290
     0
  0
SCALE
  5
71676
102
{ACAD_REACTORS
330
71656
102
}
330
71656
100
AcDbScale
 70
     0
300
1/4" = 1'-0"
140
0.25
141
12.0
290
     0
  0
SCALE
  5
71677
102
{ACAD_REACTORS
330
71656
102
}
330
71656
100
AcDbScale
 70
     0
300
3/8" = 1'-0"
140
0.375
141
12.0
290
     0
  0
SCALE
  5
71678
102
{ACAD_REACTORS
330
71656
102
}
330
71656
100
AcDbScale
 70
     0
300
1/2" = 1'-0"
140
0.5
141
12.0
290
     0
  0
SCALE
  5
71679
102
{ACAD_REACTORS
330
71656
102
}
330
71656
100
AcDbScale
 70
     0
300
3/4" = 1'-0"
140
0.75
141
12.0
290
     0
  0
SCALE
  5
7167A
102
{ACAD_REACTORS
330
71656
102
}
330
71656
100
AcDbScale
 70
     0
300
1" = 1'-0"
140
1.0
141
12.0
290
     0
  0
SCALE
  5
7167B
102
{ACAD_REACTORS
330
71656
102
}
330
71656
100
AcDbScale
 70
     0
300
1-1/2" = 1'-0"
140
1.5
141
12.0
290
     0
  0
SCALE
  5
7167C
102
{ACAD_REACTORS
330
71656
102
}
330
71656
100
AcDbScale
 70
     0
300
3" = 1'-0"
140
3.0
141
12.0
290
     0
  0
SCALE
  5
7167D
102
{ACAD_REACTORS
330
71656
102
}
330
71656
100
AcDbScale
 70
     0
300
6" = 1'-0"
140
6.0
141
12.0
290
     0
  0
SCALE
  5
7167E
102
{ACAD_REACTORS
330
71656
102
}
330
71656
100
AcDbScale
 70
     0
300
1'-0" = 1'-0"
140
12.0
141
12.0
290
     0
  0
TABLESTYLE
  5
7165A
102
{ACAD_XDICTIONARY
360
7165B
102
}
102
{ACAD_REACTORS
330
71657
102
}
330
71657
100
AcDbTableStyle
280
     0
  3
Standard
 70
     0
 71
     0
 40
0.06
 41
0.06
280
     0
281
     0
  7
Standard
140
0.18
170
     2
 62
     0
 63
     7
283
     0
 90
        4
 91
        0
  1

274
    -2
284
     1
 64
     0
275
    -2
285
     1
 65
     0
276
    -2
286
     1
 66
     0
277
    -2
287
     1
 67
     0
278
    -2
288
     1
 68
     0
279
    -2
289
     1
 69
     0
  7
Standard
140
0.25
170
     5
 62
     0
 63
     7
283
     0
 90
        4
 91
        0
  1

274
    -2
284
     1
 64
     0
275
    -2
285
     1
 65
     0
276
    -2
286
     1
 66
     0
277
    -2
287
     1
 67
     0
278
    -2
288
     1
 68
     0
279
    -2
289
     1
 69
     0
  7
Standard
140
0.18
170
     5
 62
     0
 63
     7
283
     0
 90
        4
 91
        0
  1

274
    -2
284
     1
 64
     0
275
    -2
285
     1
 65
     0
276
    -2
286
     1
 66
     0
277
    -2
287
     1
 67
     0
278
    -2
288
     1
 68
     0
279
    -2
289
     1
 69
     0
  0
VISUALSTYLE
  5
7163B
102
{ACAD_REACTORS
330
7163C
102
}
330
7163C
100
AcDbVisualStyle
  2
2dWireframe
 70
     4
177
     3
291
     0
 70
    58
 90
        0
176
     1
 90
        2
176
     1
 90
        0
176
     1
 90
        0
176
     1
 40
0.6
176
     1
 40
30.0
176
     1
 62
     7
420
 16777215
176
     1
 90
        1
176
     1
 90
        4
176
     1
 62
     7
176
     1
 62
   257
176
     1
 90
        1
176
     1
 90
        1
176
     1
 40
1.0
176
     1
 90
        0
176
     1
 62
   257
176
     1
 40
1.0
176
     1
 90
        1
176
     1
 90
        6
176
     1
 90
        2
176
     1
 62
     7
176
     1
 90
        5
176
     1
 90
        0
176
     1
 90
        0
176
     1
290
     0
176
     1
 90
        1
176
     1
 40
0.0
176
     1
 90
        0
176
     1
290
     1
176
     1
290
     1
176
     1
290
     0
176
     1
290
     0
176
     1
290
     0
176
     1
290
     0
176
     1
290
     0
176
     1
290
     0
176
     1
290
     0
176
     1
 90
       50
176
     1
 40
0.0
176
     1
 40
1.0
176
     1
 90
        0
176
     1
 62
    18
420
        0
176
     1
 90
       50
176
     1
 90
        3
176
     1
 62
     5
420
      255
176
     1
290
     0
176
     1
 90
       50
176
     1
 90
       50
176
     1
 90
       50
176
     1
290
     0
176
     1
 90
       50
176
     1
 62
   256
176
     0
 40
1.0
176
     0
 90
        2
176
     1
  1
strokes_ogs.tif
176
     1
290
     0
176
     1
 40
1.0
176
     1
 40
1.0
176
     1
  0
VISUALSTYLE
  5
7165C
102
{ACAD_REACTORS
330
7163C
102
}
330
7163C
100
AcDbVisualStyle
  2
Realistic
 70
     8
177
     3
291
     0
 70
    58
 90
        2
176
     1
 90
        2
176
     1
 90
        0
176
     1
 90
        0
176
     1
 40
0.6
176
     1
 40
30.0
176
     1
 62
     7
420
 16777215
176
     1
 90
        1
176
     1
 90
        0
176
     1
 62
     7
176
     1
 62
   257
176
     1
 90
        1
176
     1
 90
        1
176
     1
 40
1.0
176
     1
 90
        8
176
     1
 62
     8
420
  7895160
176
     1
 40
1.0
176
     1
 90
        1
176
     1
 90
        6
176
     1
 90
        2
176
     1
 62
     7
176
     1
 90
        5
176
     1
 90
        0
176
     1
 90
        0
176
     1
290
     0
176
     1
 90
       13
176
     1
 40
0.0
176
     1
 90
        0
176
     1
290
     0
176
     1
290
     1
176
     1
290
     1
176
     1
290
     0
176
     1
290
     0
176
     1
290
     0
176
     1
290
     0
176
     1
290
     0
176
     1
290
     0
176
     1
 90
       50
176
     1
 40
0.0
176
     1
 40
1.0
176
     1
 90
        0
176
     1
 62
    18
420
        0
176
     1
 90
       50
176
     1
 90
        3
176
     1
 62
     5
420
      255
176
     1
290
     0
176
     1
 90
       50
176
     1
 90
       50
176
     1
 90
       50
176
     1
290
     0
176
     1
 90
       50
176
     1
 62
   256
176
     0
 40
1.0
176
     0
 90
        2
176
     1
  1
strokes_ogs.tif
176
     1
290
     0
176
     1
 40
1.0
176
     1
 40
1.0
176
     1
  0
VISUALSTYLE
  5
7165D
102
{ACAD_REACTORS
330
7163C
102
}
330
7163C
100
AcDbVisualStyle
  2
Wireframe
 70
     5
177
     3
291
     0
 70
    58
 90
        0
176
     1
 90
        2
176
     1
 90
        0
176
     1
 90
        0
176
     1
 40
0.6
176
     1
 40
30.0
176
     1
 62
     7
420
 16777215
176
     1
 90
        1
176
     1
 90
        4
176
     1
 62
     7
176
     1
 62
   257
176
     1
 90
        1
176
     1
 90
        1
176
     1
 40
1.0
176
     1
 90
        0
176
     1
 62
   257
176
     1
 40
1.0
176
     1
 90
        1
176
     1
 90
        6
176
     1
 90
        2
176
     1
 62
     7
176
     1
 90
        3
176
     1
 90
        0
176
     1
 90
        0
176
     1
290
     0
176
     1
 90
        1
176
     1
 40
0.0
176
     1
 90
        0
176
     1
290
     0
176
     1
290
     1
176
     1
290
     1
176
     1
290
     0
176
     1
290
     0
176
     1
290
     0
176
     1
290
     0
176
     1
290
     0
176
     1
290
     0
176
     1
 90
       50
176
     1
 40
0.0
176
     1
 40
1.0
176
     1
 90
        0
176
     1
 62
    18
420
        0
176
     1
 90
       50
176
     1
 90
        3
176
     1
 62
     5
420
      255
176
     1
290
     0
176
     1
 90
       50
176
     1
 90
       50
176
     1
 90
       50
176
     1
290
     0
176
     1
 90
       50
176
     1
 62
   256
176
     0
 40
1.0
176
     0
 90
        2
176
     1
  1
strokes_ogs.tif
176
     1
290
     0
176
     1
 40
1.0
176
     1
 40
1.0
176
     1
  0
DICTIONARYVAR
  5
71802
102
{ACAD_REACTORS
330
717FC
102
}
330
717FC
100
DictionaryVariables
280
     0
  1
1:1
  0
DICTIONARYVAR
  5
717FE
102
{ACAD_REACTORS
330
717FC
102
}
330
717FC
100
DictionaryVariables
280
     0
  1
STANDARD
  0
DICTIONARYVAR
  5
717FD
102
{ACAD_REACTORS
330
717FC
102
}
330
717FC
100
DictionaryVariables
280
     0
  1
STANDARD
  0
DICTIONARYVAR
  5
717FF
102
{ACAD_REACTORS
330
717FC
102
}
330
717FC
100
DictionaryVariables
280
     0
  1

  0
DICTIONARYVAR
  5
71800
102
{ACAD_REACTORS
330
717FC
102
}
330
717FC
100
DictionaryVariables
280
     0
  1

  0
DICTIONARYVAR
  5
71803
102
{ACAD_REACTORS
330
717FC
102
}
330
717FC
100
DictionaryVariables
280
     0
  1
1
  0
DICTIONARYVAR
  5
71804
102
{ACAD_REACTORS
330
717FC
102
}
330
717FC
100
DictionaryVariables
280
     0
  1
15
  0
DICTIONARYVAR
  5
71801
102
{ACAD_REACTORS
330
717FC
102
}
330
717FC
100
DictionaryVariables
280
     0
  1
0
  0
DICTIONARY
  5
7162B
330
7162A
100
AcDbDictionary
280
     1
281
     1
  0
DICTIONARY
  5
71625
330
71623
100
AcDbDictionary
280
     1
281
     1
  0
DICTIONARY
  5
7164E
330
7164D
100
AcDbDictionary
280
     1
281
     1
  3
BUMPTILE
360
7164F
  3
DIFFUSETILE
360
71650
  3
OPACITYTILE
360
71651
  3
REFLECTIONTILE
360
71652
  3
REFRACTIONTILE
360
71653
  3
SPECULARTILE
360
71654
  0
DICTIONARY
  5
71646
330
71645
100
AcDbDictionary
280
     1
281
     1
  3
BUMPTILE
360
71647
  3
DIFFUSETILE
360
71648
  3
OPACITYTILE
360
71649
  3
REFLECTIONTILE
360
7164A
  3
REFRACTIONTILE
360
7164B
  3
SPECULARTILE
360
7164C
  0
DICTIONARY
  5
7161A
330
71618
100
AcDbDictionary
280
     1
281
     1
  3
BUMPTILE
360
7161B
  3
DIFFUSETILE
360
7161C
  3
OPACITYTILE
360
7161D
  3
REFLECTIONTILE
360
7161E
  3
REFRACTIONTILE
360
7161F
  3
SPECULARTILE
360
71620
  0
DICTIONARY
  5
7165B
330
7165A
100
AcDbDictionary
280
     1
281
     1
  3
ACAD_ROUNDTRIP_2008_TABLESTYLE_CELLSTYLEMAP
360
71805
  0
XRECORD
  5
7164F
102
{ACAD_REACTORS
330
7164E
102
}
330
7164E
100
AcDbXrecord
280
     1
270
     1
271
     1
  0
XRECORD
  5
71650
102
{ACAD_REACTORS
330
7164E
102
}
330
7164E
100
AcDbXrecord
280
     1
270
     1
271
     1
  0
XRECORD
  5
71651
102
{ACAD_REACTORS
330
7164E
102
}
330
7164E
100
AcDbXrecord
280
     1
270
     1
271
     1
  0
XRECORD
  5
71652
102
{ACAD_REACTORS
330
7164E
102
}
330
7164E
100
AcDbXrecord
280
     1
270
     1
271
     1
  0
XRECORD
  5
71653
102
{ACAD_REACTORS
330
7164E
102
}
330
7164E
100
AcDbXrecord
280
     1
270
     1
271
     1
  0
XRECORD
  5
71654
102
{ACAD_REACTORS
330
7164E
102
}
330
7164E
100
AcDbXrecord
280
     1
270
     1
271
     1
  0
XRECORD
  5
71647
102
{ACAD_REACTORS
330
71646
102
}
330
71646
100
AcDbXrecord
280
     1
270
     1
271
     1
  0
XRECORD
  5
71648
102
{ACAD_REACTORS
330
71646
102
}
330
71646
100
AcDbXrecord
280
     1
270
     1
271
     1
  0
XRECORD
  5
71649
102
{ACAD_REACTORS
330
71646
102
}
330
71646
100
AcDbXrecord
280
     1
270
     1
271
     1
  0
XRECORD
  5
7164A
102
{ACAD_REACTORS
330
71646
102
}
330
71646
100
AcDbXrecord
280
     1
270
     1
271
     1
  0
XRECORD
  5
7164B
102
{ACAD_REACTORS
330
71646
102
}
330
71646
100
AcDbXrecord
280
     1
270
     1
271
     1
  0
XRECORD
  5
7164C
102
{ACAD_REACTORS
330
71646
102
}
330
71646
100
AcDbXrecord
280
     1
270
     1
271
     1
  0
XRECORD
  5
7161B
102
{ACAD_REACTORS
330
7161A
102
}
330
7161A
100
AcDbXrecord
280
     1
270
     1
271
     1
  0
XRECORD
  5
7161C
102
{ACAD_REACTORS
330
7161A
102
}
330
7161A
100
AcDbXrecord
280
     1
270
     1
271
     1
  0
XRECORD
  5
7161D
102
{ACAD_REACTORS
330
7161A
102
}
330
7161A
100
AcDbXrecord
280
     1
270
     1
271
     1
  0
XRECORD
  5
7161E
102
{ACAD_REACTORS
330
7161A
102
}
330
7161A
100
AcDbXrecord
280
     1
270
     1
271
     1
  0
XRECORD
  5
7161F
102
{ACAD_REACTORS
330
7161A
102
}
330
7161A
100
AcDbXrecord
280
     1
270
     1
271
     1
  0
XRECORD
  5
71620
102
{ACAD_REACTORS
330
7161A
102
}
330
7161A
100
AcDbXrecord
280
     1
270
     1
271
     1
  0
CELLSTYLEMAP
  5
71805
102
{ACAD_REACTORS
330
7165B
102
}
330
7165B
100
AcDbCellStyleMap
 90
        3
300
CELLSTYLE
  1
TABLEFORMAT_BEGIN
 90
        5
170
     1
 91
        0
 92
    32768
 62
   257
 93
        1
300
CONTENTFORMAT
  1
CONTENTFORMAT_BEGIN
 90
        0
 91
        0
 92
        4
 93
        0
300

 40
0.0
140
1.0
 94
        5
 62
     0
340
71632
144
0.25
309
CONTENTFORMAT_END
171
     0
 94
        6
 95
        1
302
GRIDFORMAT
  1
GRIDFORMAT_BEGIN
 90
        0
 91
        1
 62
     0
 92
       -2
340
0
 93
        0
 40
0.045
309
GRIDFORMAT_END
 95
        2
302
GRIDFORMAT
  1
GRIDFORMAT_BEGIN
 90
        0
 91
        1
 62
     0
 92
       -2
340
0
 93
        0
 40
0.045
309
GRIDFORMAT_END
 95
        4
302
GRIDFORMAT
  1
GRIDFORMAT_BEGIN
 90
        0
 91
        1
 62
     0
 92
       -2
340
0
 93
        0
 40
0.045
309
GRIDFORMAT_END
 95
        8
302
GRIDFORMAT
  1
GRIDFORMAT_BEGIN
 90
        0
 91
        1
 62
     0
 92
       -2
340
0
 93
        0
 40
0.045
309
GRIDFORMAT_END
 95
       16
302
GRIDFORMAT
  1
GRIDFORMAT_BEGIN
 90
        0
 91
        1
 62
     0
 92
       -2
340
0
 93
        0
 40
0.045
309
GRIDFORMAT_END
 95
       32
302
GRIDFORMAT
  1
GRIDFORMAT_BEGIN
 90
        0
 91
        1
 62
     0
 92
       -2
340
0
 93
        0
 40
0.045
309
GRIDFORMAT_END
309
TABLEFORMAT_END
  1
CELLSTYLE_BEGIN
 90
        1
 91
        1
300
_TITLE
309
CELLSTYLE_END
300
CELLSTYLE
  1
TABLEFORMAT_BEGIN
 90
        5
170
     1
 91
        0
 92
        0
 62
   257
 93
        1
300
CONTENTFORMAT
  1
CONTENTFORMAT_BEGIN
 90
        0
 91
        0
 92
        4
 93
        0
300

 40
0.0
140
1.0
 94
        5
 62
     0
340
71632
144
0.18
309
CONTENTFORMAT_END
171
     0
 94
        6
 95
        1
302
GRIDFORMAT
  1
GRIDFORMAT_BEGIN
 90
        0
 91
        1
 62
     0
 92
       -2
340
0
 93
        0
 40
0.045
309
GRIDFORMAT_END
 95
        2
302
GRIDFORMAT
  1
GRIDFORMAT_BEGIN
 90
        0
 91
        1
 62
     0
 92
       -2
340
0
 93
        0
 40
0.045
309
GRIDFORMAT_END
 95
        4
302
GRIDFORMAT
  1
GRIDFORMAT_BEGIN
 90
        0
 91
        1
 62
     0
 92
       -2
340
0
 93
        0
 40
0.045
309
GRIDFORMAT_END
 95
        8
302
GRIDFORMAT
  1
GRIDFORMAT_BEGIN
 90
        0
 91
        1
 62
     0
 92
       -2
340
0
 93
        0
 40
0.045
309
GRIDFORMAT_END
 95
       16
302
GRIDFORMAT
  1
GRIDFORMAT_BEGIN
 90
        0
 91
        1
 62
     0
 92
       -2
340
0
 93
        0
 40
0.045
309
GRIDFORMAT_END
 95
       32
302
GRIDFORMAT
  1
GRIDFORMAT_BEGIN
 90
        0
 91
        1
 62
     0
 92
       -2
340
0
 93
        0
 40
0.045
309
GRIDFORMAT_END
309
TABLEFORMAT_END
  1
CELLSTYLE_BEGIN
 90
        2
 91
        1
300
_HEADER
309
CELLSTYLE_END
300
CELLSTYLE
  1
TABLEFORMAT_BEGIN
 90
        5
170
     1
 91
        0
 92
        0
 62
   257
 93
        1
300
CONTENTFORMAT
  1
CONTENTFORMAT_BEGIN
 90
        0
 91
        0
 92
        4
 93
        0
300

 40
0.0
140
1.0
 94
        2
 62
     0
340
71632
144
0.18
309
CONTENTFORMAT_END
171
     0
 94
        6
 95
        1
302
GRIDFORMAT
  1
GRIDFORMAT_BEGIN
 90
        0
 91
        1
 62
     0
 92
       -2
340
0
 93
        0
 40
0.045
309
GRIDFORMAT_END
 95
        2
302
GRIDFORMAT
  1
GRIDFORMAT_BEGIN
 90
        0
 91
        1
 62
     0
 92
       -2
340
0
 93
        0
 40
0.045
309
GRIDFORMAT_END
 95
        4
302
GRIDFORMAT
  1
GRIDFORMAT_BEGIN
 90
        0
 91
        1
 62
     0
 92
       -2
340
0
 93
        0
 40
0.045
309
GRIDFORMAT_END
 95
        8
302
GRIDFORMAT
  1
GRIDFORMAT_BEGIN
 90
        0
 91
        1
 62
     0
 92
       -2
340
0
 93
        0
 40
0.045
309
GRIDFORMAT_END
 95
       16
302
GRIDFORMAT
  1
GRIDFORMAT_BEGIN
 90
        0
 91
        1
 62
     0
 92
       -2
340
0
 93
        0
 40
0.045
309
GRIDFORMAT_END
 95
       32
302
GRIDFORMAT
  1
GRIDFORMAT_BEGIN
 90
        0
 91
        1
 62
     0
 92
       -2
340
0
 93
        0
 40
0.045
309
GRIDFORMAT_END
309
TABLEFORMAT_END
  1
CELLSTYLE_BEGIN
 90
        3
 91
        2
300
_DATA
309
CELLSTYLE_END
  0
ENDSEC
  0
SECTION
  2
ACDSDATA
 70
     2
 71
     6
  0
ACDSSCHEMA
 90
        0
  1
AcDb_Thumbnail_Schema
  2
AcDbDs::ID
280
    10
 91
        8
  2
Thumbnail_Data
280
    15
 91
        0
101
ACDSRECORD
 95
        0
 90
        1
  2
AcDbDs::TreatedAsObjectData
280
     1
291
     1
101
ACDSRECORD
 95
        0
 90
        2
  2
AcDbDs::Legacy
280
     1
291
     1
101
ACDSRECORD
  1
AcDbDs::ID
 90
        3
  2
AcDs:Indexable
280
     1
291
     1
101
ACDSRECORD
  1
AcDbDs::ID
 90
        4
  2
AcDbDs::HandleAttribute
280
     7
282
     1
  0
ACDSSCHEMA
 90
        1
  1
AcDbDs::TreatedAsObjectDataSchema
  2
AcDbDs::TreatedAsObjectData
280
     1
 91
        0
  0
ACDSSCHEMA
 90
        2
  1
AcDbDs::LegacySchema
  2
AcDbDs::Legacy
280
     1
 91
        0
  0
ACDSSCHEMA
 90
        3
  1
AcDbDs::IndexedPropertySchema
  2
AcDs:Indexable
280
     1
 91
        0
  0
ACDSSCHEMA
 90
        4
  1
AcDbDs::HandleAttributeSchema
  2
AcDbDs::HandleAttribute
280
     7
 91
        1
284
     1
  0
ACDSRECORD
 90
        0
  2
AcDbDs::ID
280
    10
320
7162A
  2
Thumbnail_Data
280
    15
 94
     1183
310
89504E470D0A1A0A0000000D4948445200000100000000C508030000008CFEDCE700000300504C5445FFFFFF000000FFFFFF0000000000000000000000000000000000000000000000000000330000660000990000CC0000FF0033000033330033660033990033CC0033FF0066000066330066660066990066CC0066FF0099
310
000099330099660099990099CC0099FF00CC0000CC3300CC6600CC9900CCCC00CCFF00FF0000FF3300FF6600FF9900FFCC00FFFF3300003300333300663300993300CC3300FF3333003333333333663333993333CC3333FF3366003366333366663366993366CC3366FF3399003399333399663399993399CC3399FF33CC00
310
33CC3333CC6633CC9933CCCC33CCFF33FF0033FF3333FF6633FF9933FFCC33FFFF6600006600336600666600996600CC6600FF6633006633336633666633996633CC6633FF6666006666336666666666996666CC6666FF6699006699336699666699996699CC6699FF66CC0066CC3366CC6666CC9966CCCC66CCFF66FF0066
310
FF3366FF6666FF9966FFCC66FFFF9900009900339900669900999900CC9900FF9933009933339933669933999933CC9933FF9966009966339966669966999966CC9966FF9999009999339999669999999999CC9999FF99CC0099CC3399CC6699CC9999CCCC99CCFF99FF0099FF3399FF6699FF9999FFCC99FFFFCC0000CC00
310
33CC0066CC0099CC00CCCC00FFCC3300CC3333CC3366CC3399CC33CCCC33FFCC6600CC6633CC6666CC6699CC66CCCC66FFCC9900CC9933CC9966CC9999CC99CCCC99FFCCCC00CCCC33CCCC66CCCC99CCCCCCCCCCFFCCFF00CCFF33CCFF66CCFF99CCFFCCCCFFFFFF0000FF0033FF0066FF0099FF00CCFF00FFFF3300FF3333
310
FF3366FF3399FF33CCFF33FFFF6600FF6633FF6666FF6699FF66CCFF66FFFF9900FF9933FF9966FF9999FF99CCFF99FFFFCC00FFCC33FFCC66FFCC99FFCCCCFFCCFFFFFF00FFFF33FFFF66FFFF99FFFFCCFFFFFF0000000D0D0D1A1A1A2828283535354343435050505D5D5D6B6B6B787878868686939393A1A1A1AEAEAEBB
310
BBBBC9C9C9D6D6D6E4E4E4F1F1F1FFFFFF000000000000000000000000000000000000000000000000000000000000790CAC0F0000015A4944415478DAEDD8410A8340100440FFFFCCF9C09EE61E104224896014844D579F64F420A587DE592A3A632CD5C101100F500500C0F36ACDF6D636BFCEEBAEF9E9177D0788FBF600
310
000000000000004D1000000000000000100F50FB4F4C9E8B5578FAFF0300000000000000000000000000000000B00BD069000D0000000000000000A009020000000000000000000000000000000052013A0DA001000000000000000000A8C2000000000000000000000000000000402A40FC420400000000000000002016C0
310
5900000000000000000000000000000000C803885F88000000000000000000C402380B0000000000000000000000000000000000E2003A0DA0010000000000000000344100000000000000000000000000000000C0E7C660F21C04080D0000000000000000C01F54DE73151900000000000000D0AFCDCFB6227CDDAB1C9CD7
310
5DF3D32FAA0902000000C00A109E658C110DF0000E6CC6FBCCF8EC2E0000000049454E44AE426082
  0
ACDSRECORD
 90
        0
  2
AcDbDs::ID
280
    10
320
71623
  2
Thumbnail_Data
280
    15
 94
     1017
310
89504E470D0A1A0A0000000D4948445200000100000000890803000000F46416F000000300504C5445FEFCF0000000FFFFFF0000000000000000000000000000000000000000000000000000330000660000990000CC0000FF0033000033330033660033990033CC0033FF0066000066330066660066990066CC0066FF0099
310
000099330099660099990099CC0099FF00CC0000CC3300CC6600CC9900CCCC00CCFF00FF0000FF3300FF6600FF9900FFCC00FFFF3300003300333300663300993300CC3300FF3333003333333333663333993333CC3333FF3366003366333366663366993366CC3366FF3399003399333399663399993399CC3399FF33CC00
310
33CC3333CC6633CC9933CCCC33CCFF33FF0033FF3333FF6633FF9933FFCC33FFFF6600006600336600666600996600CC6600FF6633006633336633666633996633CC6633FF6666006666336666666666996666CC6666FF6699006699336699666699996699CC6699FF66CC0066CC3366CC6666CC9966CCCC66CCFF66FF0066
310
FF3366FF6666FF9966FFCC66FFFF9900009900339900669900999900CC9900FF9933009933339933669933999933CC9933FF9966009966339966669966999966CC9966FF9999009999339999669999999999CC9999FF99CC0099CC3399CC6699CC9999CCCC99CCFF99FF0099FF3399FF6699FF9999FFCC99FFFFCC0000CC00
310
33CC0066CC0099CC00CCCC00FFCC3300CC3333CC3366CC3399CC33CCCC33FFCC6600CC6633CC6666CC6699CC66CCCC66FFCC9900CC9933CC9966CC9999CC99CCCC99FFCCCC00CCCC33CCCC66CCCC99CCCCCCCCCCFFCCFF00CCFF33CCFF66CCFF99CCFFCCCCFFFFFF0000FF0033FF0066FF0099FF00CCFF00FFFF3300FF3333
310
FF3366FF3399FF33CCFF33FFFF6600FF6633FF6666FF6699FF66CCFF66FFFF9900FF9933FF9966FF9999FF99CCFF99FFFFCC00FFCC33FFCC66FFCC99FFCCCCFFCCFFFFFF00FFFF33FFFF66FFFF99FFFFCCFFFFFF0000000D0D0D1A1A1A2828283535354343435050505D5D5D6B6B6B787878868686939393A1A1A1AEAEAEBB
310
BBBBC9C9C9D6D6D6E4E4E4F1F1F1FFFFFF0000000000000000000000000000000000000000000000000000000000007C77BAA7000000B44944415478DAEDD0310100000C0220FBB7B48931760C22903E1701020408102040800001020408102040800001020408102040800001020408102040800001020408102040800001
310
020408102040800001020408102040800001020408102040800001020408102040800001020408102040800001020408102040800001020408102040800001020408102040800001020408102040800001020408102040800001020408102040800001020408102040C099016B33700943E05F3C0000000049454E44AE4260
310
82
  0
ENDSEC
  0
EOF
