  0
SECTION
  2
HEADER
  9
$ACADVER
  1
AC1027
  9
$ACADMAINTVER
 70
    55
  9
$DWGCODEPAGE
  3
ANSI_1252
  9
$AUTHOR
  1
WAEngineering1
  9
$LASTSAVEDBY
  1
WAMarketing2
  9
$REQUIREDVERSIONS
160
                 0
  9
$INSBASE
 10
0.0
 20
0.0
 30
0.0
  9
$EXTMIN
 10
547.312
 20
-2373.59
 30
0.0
  9
$EXTMAX
 10
3703.313
 20
2082.411
 30
0.0
  9
$LIMMIN
 10
-8795.545932
 20
-11066.447932
  9
$LIMMAX
 10
13046.170932
 20
10775.268932
  9
$ORTHOMODE
 70
     0
  9
$REGENMODE
 70
     1
  9
$FILLMODE
 70
     1
  9
$QTEXTMODE
 70
     0
  9
$MIRRTEXT
 70
     0
  9
$LTSCALE
 40
1.0
  9
$ATTMODE
 70
     1
  9
$TEXTSIZE
 40
100.0
  9
$TRACEWID
 40
0.05
  9
$TEXTSTYLE
  7
Standard
  9
$CLAYER
  8
Level 8
  9
$CELTYPE
  6
Continuous
  9
$CECOLOR
 62
    98
  9
$CELTSCALE
 40
1.0
  9
$DISPSILH
 70
     0
  9
$DIMSCALE
 40
1.0
  9
$DIMASZ
 40
0.18
  9
$DIMEXO
 40
0.0625
  9
$DIMDLI
 40
0.38
  9
$DIMRND
 40
0.0
  9
$DIMDLE
 40
0.0
  9
$DIMEXE
 40
0.18
  9
$DIMTP
 40
0.0
  9
$DIMTM
 40
0.0
  9
$DIMTXT
 40
0.18
  9
$DIMCEN
 40
0.09
  9
$DIMTSZ
 40
0.0
  9
$DIMTOL
 70
     0
  9
$DIMLIM
 70
     0
  9
$DIMTIH
 70
     1
  9
$DIMTOH
 70
     1
  9
$DIMSE1
 70
     0
  9
$DIMSE2
 70
     0
  9
$DIMTAD
 70
     0
  9
$DIMZIN
 70
     0
  9
$DIMBLK
  1

  9
$DIMASO
 70
     1
  9
$DIMSHO
 70
     1
  9
$DIMPOST
  1

  9
$DIMAPOST
  1

  9
$DIMALT
 70
     0
  9
$DIMALTD
 70
     2
  9
$DIMALTF
 40
25.4
  9
$DIMLFAC
 40
1.0
  9
$DIMTOFL
 70
     0
  9
$DIMTVP
 40
0.0
  9
$DIMTIX
 70
     0
  9
$DIMSOXD
 70
     0
  9
$DIMSAH
 70
     0
  9
$DIMBLK1
  1

  9
$DIMBLK2
  1

  9
$DIMSTYLE
  2
Standard
  9
$DIMCLRD
 70
     0
  9
$DIMCLRE
 70
     0
  9
$DIMCLRT
 70
     0
  9
$DIMTFAC
 40
1.0
  9
$DIMGAP
 40
0.09
  9
$DIMJUST
 70
     0
  9
$DIMSD1
 70
     0
  9
$DIMSD2
 70
     0
  9
$DIMTOLJ
 70
     1
  9
$DIMTZIN
 70
     0
  9
$DIMALTZ
 70
     0
  9
$DIMALTTZ
 70
     0
  9
$DIMUPT
 70
     0
  9
$DIMDEC
 70
     4
  9
$DIMTDEC
 70
     4
  9
$DIMALTU
 70
     2
  9
$DIMALTTD
 70
     2
  9
$DIMTXSTY
  7
Standard
  9
$DIMAUNIT
 70
     0
  9
$DIMADEC
 70
     0
  9
$DIMALTRND
 40
0.0
  9
$DIMAZIN
 70
     0
  9
$DIMDSEP
 70
    46
  9
$DIMATFIT
 70
     3
  9
$DIMFRAC
 70
     0
  9
$DIMLDRBLK
  1

  9
$DIMLUNIT
 70
     2
  9
$DIMLWD
 70
    -2
  9
$DIMLWE
 70
    -2
  9
$DIMTMOVE
 70
     0
  9
$DIMFXL
 40
1.0
  9
$DIMFXLON
 70
     0
  9
$DIMJOGANG
 40
0.785398
  9
$DIMTFILL
 70
     0
  9
$DIMTFILLCLR
 70
     0
  9
$DIMARCSYM
 70
     0
  9
$DIMLTYPE
  6

  9
$DIMLTEX1
  6

  9
$DIMLTEX2
  6

  9
$DIMTXTDIRECTION
 70
     0
  9
$LUNITS
 70
     2
  9
$LUPREC
 70
     0
  9
$SKETCHINC
 40
0.1
  9
$FILLETRAD
 40
0.0
  9
$AUNITS
 70
     0
  9
$AUPREC
 70
     0
  9
$MENU
  1
.
  9
$ELEVATION
 40
0.0
  9
$PELEVATION
 40
0.0
  9
$THICKNESS
 40
0.0
  9
$LIMCHECK
 70
     0
  9
$CHAMFERA
 40
0.0
  9
$CHAMFERB
 40
0.0
  9
$CHAMFERC
 40
0.0
  9
$CHAMFERD
 40
0.0
  9
$SKPOLY
 70
     0
  9
$TDCREATE
 40
2454145.111357350
  9
$TDUCREATE
 40
2454144.778024017
  9
$TDUPDATE
 40
2455657.145108565
  9
$TDUUPDATE
 40
2455656.811775231
  9
$TDINDWG
 40
0.0262178704
  9
$TDUSRTIMER
 40
0.0262176852
  9
$USRTIMER
 70
     1
  9
$ANGBASE
 50
0.0
  9
$ANGDIR
 70
     0
  9
$PDMODE
 70
     0
  9
$PDSIZE
 40
0.0
  9
$PLINEWID
 40
0.0
  9
$SPLFRAME
 70
     0
  9
$SPLINETYPE
 70
     6
  9
$SPLINESEGS
 70
     8
  9
$HANDSEED
  5
7193F
  9
$SURFTAB1
 70
     6
  9
$SURFTAB2
 70
     6
  9
$SURFTYPE
 70
     6
  9
$SURFU
 70
     6
  9
$SURFV
 70
     6
  9
$UCSBASE
  2

  9
$UCSNAME
  2

  9
$UCSORG
 10
0.0
 20
0.0
 30
0.0
  9
$UCSXDIR
 10
1.0
 20
0.0
 30
0.0
  9
$UCSYDIR
 10
0.0
 20
1.0
 30
0.0
  9
$UCSORTHOREF
  2

  9
$UCSORTHOVIEW
 70
     0
  9
$UCSORGTOP
 10
0.0
 20
0.0
 30
0.0
  9
$UCSORGBOTTOM
 10
0.0
 20
0.0
 30
0.0
  9
$UCSORGLEFT
 10
0.0
 20
0.0
 30
0.0
  9
$UCSORGRIGHT
 10
0.0
 20
0.0
 30
0.0
  9
$UCSORGFRONT
 10
0.0
 20
0.0
 30
0.0
  9
$UCSORGBACK
 10
0.0
 20
0.0
 30
0.0
  9
$PUCSBASE
  2

  9
$PUCSNAME
  2

  9
$PUCSORG
 10
0.0
 20
0.0
 30
0.0
  9
$PUCSXDIR
 10
1.0
 20
0.0
 30
0.0
  9
$PUCSYDIR
 10
0.0
 20
1.0
 30
0.0
  9
$PUCSORTHOREF
  2

  9
$PUCSORTHOVIEW
 70
     0
  9
$PUCSORGTOP
 10
0.0
 20
0.0
 30
0.0
  9
$PUCSORGBOTTOM
 10
0.0
 20
0.0
 30
0.0
  9
$PUCSORGLEFT
 10
0.0
 20
0.0
 30
0.0
  9
$PUCSORGRIGHT
 10
0.0
 20
0.0
 30
0.0
  9
$PUCSORGFRONT
 10
0.0
 20
0.0
 30
0.0
  9
$PUCSORGBACK
 10
0.0
 20
0.0
 30
0.0
  9
$USERI1
 70
     0
  9
$USERI2
 70
     0
  9
$USERI3
 70
     0
  9
$USERI4
 70
     0
  9
$USERI5
 70
     0
  9
$USERR1
 40
0.0
  9
$USERR2
 40
0.0
  9
$USERR3
 40
0.0
  9
$USERR4
 40
0.0
  9
$USERR5
 40
0.0
  9
$WORLDVIEW
 70
     1
  9
$SHADEDGE
 70
     3
  9
$SHADEDIF
 70
    70
  9
$TILEMODE
 70
     1
  9
$MAXACTVP
 70
    64
  9
$PINSBASE
 10
0.0
 20
0.0
 30
0.0
  9
$PLIMCHECK
 70
     0
  9
$PEXTMIN
 10
1.05
 20
0.8
 30
0.0
  9
$PEXTMAX
 10
9.45
 20
7.2
 30
0.0
  9
$PLIMMIN
 10
-0.25
 20
-0.25
  9
$PLIMMAX
 10
10.75
 20
8.25
  9
$UNITMODE
 70
     0
  9
$VISRETAIN
 70
     1
  9
$PLINEGEN
 70
     0
  9
$PSLTSCALE
 70
     0
  9
$TREEDEPTH
 70
  3020
  9
$CMLSTYLE
  2
Standard
  9
$CMLJUST
 70
     0
  9
$CMLSCALE
 40
1.0
  9
$PROXYGRAPHICS
 70
     1
  9
$MEASUREMENT
 70
     0
  9
$CELWEIGHT
370
     0
  9
$ENDCAPS
280
     0
  9
$JOINSTYLE
280
     0
  9
$LWDISPLAY
290
     1
  9
$INSUNITS
 70
     4
  9
$HYPERLINKBASE
  1

  9
$STYLESHEET
  1

  9
$XEDIT
290
     1
  9
$CEPSNTYPE
380
     0
  9
$PSTYLEMODE
290
     1
  9
$FINGERPRINTGUID
  2
{AEBA6411-76E6-4881-A841-2F2FCD2FEC32}
  9
$VERSIONGUID
  2
{5066CCA6-5121-4C7B-A04C-375F92FA871B}
  9
$EXTNAMES
290
     1
  9
$PSVPSCALE
 40
0.0
  9
$OLESTARTUP
290
     0
  9
$SORTENTS
280
   127
  9
$INDEXCTL
280
     0
  9
$HIDETEXT
280
     1
  9
$XCLIPFRAME
280
     0
  9
$HALOGAP
280
     0
  9
$OBSCOLOR
 70
   257
  9
$OBSLTYPE
280
     0
  9
$INTERSECTIONDISPLAY
280
     0
  9
$INTERSECTIONCOLOR
 70
   257
  9
$DIMASSOC
280
     1
  9
$PROJECTNAME
  1

  9
$CAMERADISPLAY
290
     0
  9
$LENSLENGTH
 40
50.0
  9
$CAMERAHEIGHT
 40
0.0
  9
$STEPSPERSEC
 40
2.0
  9
$STEPSIZE
 40
6.0
  9
$3DDWFPREC
 40
2.0
  9
$PSOLWIDTH
 40
0.25
  9
$PSOLHEIGHT
 40
4.0
  9
$LOFTANG1
 40
1.570796
  9
$LOFTANG2
 40
1.570796
  9
$LOFTMAG1
 40
0.0
  9
$LOFTMAG2
 40
0.0
  9
$LOFTPARAM
 70
     7
  9
$LOFTNORMALS
280
     1
  9
$LATITUDE
 40
37.795
  9
$LONGITUDE
 40
-122.394
  9
$NORTHDIRECTION
 40
0.0
  9
$TIMEZONE
 70
 -8000
  9
$LIGHTGLYPHDISPLAY
280
     1
  9
$TILEMODELIGHTSYNCH
280
     1
  9
$CMATERIAL
347
716E6
  9
$SOLIDHIST
280
     1
  9
$SHOWHIST
280
     1
  9
$DWFFRAME
280
     2
  9
$DGNFRAME
280
     0
  9
$REALWORLDSCALE
290
     1
  9
$INTERFERECOLOR
 62
     1
  9
$INTERFEREOBJVS
345
716FD
  9
$INTERFEREVPVS
346
716FE
  9
$CSHADOW
280
     0
  9
$SHADOWPLANELOCATION
 40
0.0
  0
ENDSEC
  0
SECTION
  2
CLASSES
  0
CLASS
  1
ACDBDICTIONARYWDFLT
  2
AcDbDictionaryWithDefault
  3
ObjectDBX Classes
 90
        0
 91
        1
280
     0
281
     0
  0
CLASS
  1
DICTIONARYVAR
  2
AcDbDictionaryVar
  3
ObjectDBX Classes
 90
        0
 91
        8
280
     0
281
     0
  0
CLASS
  1
TABLESTYLE
  2
AcDbTableStyle
  3
ObjectDBX Classes
 90
     4095
 91
        1
280
     0
281
     0
  0
CLASS
  1
MATERIAL
  2
AcDbMaterial
  3
ObjectDBX Classes
 90
     1153
 91
        3
280
     0
281
     0
  0
CLASS
  1
VISUALSTYLE
  2
AcDbVisualStyle
  3
ObjectDBX Classes
 90
     4095
 91
        3
280
     0
281
     0
  0
CLASS
  1
SCALE
  2
AcDbScale
  3
ObjectDBX Classes
 90
     1153
 91
       33
280
     0
281
     0
  0
CLASS
  1
MLEADERSTYLE
  2
AcDbMLeaderStyle
  3
ACDB_MLEADERSTYLE_CLASS
 90
     4095
 91
        0
280
     0
281
     0
  0
CLASS
  1
EXACXREFPANELOBJECT
  2
ExAcXREFPanelObject
  3
EXAC_ESW
 90
     1025
 91
        0
280
     1
281
     0
  0
CLASS
  1
NPOCOLLECTION
  2
AcDbImpNonPersistentObjectsCollection
  3
ObjectDBX Classes
 90
     1153
 91
        0
280
     0
281
     0
  0
CLASS
  1
CELLSTYLEMAP
  2
AcDbCellStyleMap
  3
ObjectDBX Classes
 90
     1152
 91
        1
280
     0
281
     0
  0
CLASS
  1
ACDBSECTIONVIEWSTYLE
  2
AcDbSectionViewStyle
  3
ObjectDBX Classes
 90
     1025
 91
        0
280
     0
281
     0
  0
CLASS
  1
ACDBDETAILVIEWSTYLE
  2
AcDbDetailViewStyle
  3
ObjectDBX Classes
 90
     1025
 91
        0
280
     0
281
     0
  0
ENDSEC
  0
SECTION
  2
TABLES
  0
TABLE
  2
VPORT
  5
716DA
330
0
100
AcDbSymbolTable
 70
     2
  0
VPORT
  5
4B
330
716DA
100
AcDbSymbolTableRecord
100
AcDbViewportTableRecord
  2
*ACTIVE
 70
     0
 10
0.0
 20
0.0
 11
1.0
 21
1.0
 12
2125.3125
 22
-145.5895
 13
0.0
 23
0.0
 14
1.0
 24
1.0
 15
1.0
 25
1.0
 16
0.0
 26
0.0
 36
1.0
 17
0.0
 27
0.0
 37
0.0
 40
4634.24104
 41
2.090493
 42
50.0
 43
0.0
 44
0.0
 50
0.0
 51
0.0
 71
     0
 72
   100
 73
     1
 74
     0
 75
     0
 76
     0
 77
     0
 78
     1
281
     0
 65
     1
110
0.0
120
0.0
130
0.0
111
1.0
121
0.0
131
0.0
112
0.0
122
1.0
132
0.0
 79
     0
146
0.0
 60
     3
 61
    10
292
     0
282
     1
141
0.0
142
0.0
 63
     7
421
 16777215
  0
ENDTAB
  0
TABLE
  2
LTYPE
  5
716D5
330
0
100
AcDbSymbolTable
 70
     2
  0
LTYPE
  5
716D6
330
716D5
100
AcDbSymbolTableRecord
100
AcDbLinetypeTableRecord
  2
ByBlock
 70
     0
  3

 72
    65
 73
     0
 40
0.0
  0
LTYPE
  5
716D7
330
716D5
100
AcDbSymbolTableRecord
100
AcDbLinetypeTableRecord
  2
ByLayer
 70
     0
  3

 72
    65
 73
     0
 40
0.0
  0
LTYPE
  5
716C2
330
716D5
100
AcDbSymbolTableRecord
100
AcDbLinetypeTableRecord
  2
Continuous
 70
     0
  3
Solid line
 72
    65
 73
     0
 40
0.0
  0
LTYPE
  5
71932
330
716D5
100
AcDbSymbolTableRecord
100
AcDbLinetypeTableRecord
  2
DGN Style 2
 70
     0
  3
Dgn Style 2
 72
    65
 73
     2
 40
96.878464
 49
58.127078
 74
     0
 49
-38.751386
 74
     0
  0
ENDTAB
  0
TABLE
  2
LAYER
  5
716CF
102
{ACAD_XDICTIONARY
360
716D0
102
}
330
0
100
AcDbSymbolTable
 70
    65
  0
LAYER
  5
716B3
102
{ACAD_XDICTIONARY
360
716B4
102
}
330
716CF
100
AcDbSymbolTableRecord
100
AcDbLayerTableRecord
  2
0
 70
     0
 62
     7
  6
Continuous
370
    -3
390
716B6
347
716B9
348
0
1001
AcCmTransparency
1071
 33554687
  0
LAYER
  5
7
330
716CF
100
AcDbSymbolTableRecord
100
AcDbLayerTableRecord
  2
Level 1
 70
     0
 62
     7
  6
Continuous
370
     0
390
716B6
347
716B9
348
0
1001
AcCmTransparency
1071
 33554687
  0
LAYER
  5
8
330
716CF
100
AcDbSymbolTableRecord
100
AcDbLayerTableRecord
  2
Level 2
 70
     0
 62
     7
  6
Continuous
370
     0
390
716B6
347
716B9
348
0
1001
AcCmTransparency
1071
 33554687
  0
LAYER
  5
9
330
716CF
100
AcDbSymbolTableRecord
100
AcDbLayerTableRecord
  2
Level 3
 70
     0
 62
     7
  6
Continuous
370
     0
390
716B6
347
716B9
348
0
1001
AcCmTransparency
1071
 33554687
  0
LAYER
  5
A
330
716CF
100
AcDbSymbolTableRecord
100
AcDbLayerTableRecord
  2
Level 4
 70
     0
 62
     7
  6
Continuous
370
     0
390
716B6
347
716B9
348
0
1001
AcCmTransparency
1071
 33554687
  0
LAYER
  5
B
330
716CF
100
AcDbSymbolTableRecord
100
AcDbLayerTableRecord
  2
Level 5
 70
     0
 62
     7
  6
Continuous
370
     0
390
716B6
347
716B9
348
0
1001
AcCmTransparency
1071
 33554687
  0
LAYER
  5
C
330
716CF
100
AcDbSymbolTableRecord
100
AcDbLayerTableRecord
  2
Level 6
 70
     0
 62
     7
  6
Continuous
370
     0
390
716B6
347
716B9
348
0
1001
AcCmTransparency
1071
 33554687
  0
LAYER
  5
D
330
716CF
100
AcDbSymbolTableRecord
100
AcDbLayerTableRecord
  2
Level 7
 70
     0
 62
     7
  6
Continuous
370
     0
390
716B6
347
716B9
348
0
1001
AcCmTransparency
1071
 33554687
  0
LAYER
  5
E
330
716CF
100
AcDbSymbolTableRecord
100
AcDbLayerTableRecord
  2
Level 8
 70
     0
 62
     7
  6
Continuous
370
     0
390
716B6
347
716B9
348
0
1001
AcCmTransparency
1071
 33554687
  0
LAYER
  5
F
330
716CF
100
AcDbSymbolTableRecord
100
AcDbLayerTableRecord
  2
Level 9
 70
     0
 62
     7
  6
Continuous
370
     0
390
716B6
347
716B9
348
0
1001
AcCmTransparency
1071
 33554687
  0
LAYER
  5
10
330
716CF
100
AcDbSymbolTableRecord
100
AcDbLayerTableRecord
  2
Level 10
 70
     0
 62
     7
  6
Continuous
370
     0
390
716B6
347
716B9
348
0
1001
AcCmTransparency
1071
 33554687
  0
LAYER
  5
11
330
716CF
100
AcDbSymbolTableRecord
100
AcDbLayerTableRecord
  2
Level 11
 70
     0
 62
     7
  6
Continuous
370
     0
390
716B6
347
716B9
348
0
1001
AcCmTransparency
1071
 33554687
  0
LAYER
  5
12
330
716CF
100
AcDbSymbolTableRecord
100
AcDbLayerTableRecord
  2
Level 12
 70
     0
 62
     7
  6
Continuous
370
     0
390
716B6
347
716B9
348
0
1001
AcCmTransparency
1071
 33554687
  0
LAYER
  5
13
330
716CF
100
AcDbSymbolTableRecord
100
AcDbLayerTableRecord
  2
Level 13
 70
     0
 62
     7
  6
Continuous
370
     0
390
716B6
347
716B9
348
0
1001
AcCmTransparency
1071
 33554687
  0
LAYER
  5
14
330
716CF
100
AcDbSymbolTableRecord
100
AcDbLayerTableRecord
  2
Level 14
 70
     0
 62
     7
  6
Continuous
370
     0
390
716B6
347
716B9
348
0
1001
AcCmTransparency
1071
 33554687
  0
LAYER
  5
15
330
716CF
100
AcDbSymbolTableRecord
100
AcDbLayerTableRecord
  2
Level 15
 70
     0
 62
     7
  6
Continuous
370
     0
390
716B6
347
716B9
348
0
1001
AcCmTransparency
1071
 33554687
  0
LAYER
  5
16
330
716CF
100
AcDbSymbolTableRecord
100
AcDbLayerTableRecord
  2
Level 16
 70
     0
 62
     7
  6
Continuous
370
     0
390
716B6
347
716B9
348
0
1001
AcCmTransparency
1071
 33554687
  0
LAYER
  5
17
330
716CF
100
AcDbSymbolTableRecord
100
AcDbLayerTableRecord
  2
Level 17
 70
     0
 62
     7
  6
Continuous
370
     0
390
716B6
347
716B9
348
0
1001
AcCmTransparency
1071
 33554687
  0
LAYER
  5
18
330
716CF
100
AcDbSymbolTableRecord
100
AcDbLayerTableRecord
  2
Level 18
 70
     0
 62
     7
  6
Continuous
370
     0
390
716B6
347
716B9
348
0
1001
AcCmTransparency
1071
 33554687
  0
LAYER
  5
19
330
716CF
100
AcDbSymbolTableRecord
100
AcDbLayerTableRecord
  2
Level 19
 70
     0
 62
     7
  6
Continuous
370
     0
390
716B6
347
716B9
348
0
1001
AcCmTransparency
1071
 33554687
  0
LAYER
  5
1A
330
716CF
100
AcDbSymbolTableRecord
100
AcDbLayerTableRecord
  2
Level 20
 70
     0
 62
     7
  6
Continuous
370
     0
390
716B6
347
716B9
348
0
1001
AcCmTransparency
1071
 33554687
  0
LAYER
  5
1B
330
716CF
100
AcDbSymbolTableRecord
100
AcDbLayerTableRecord
  2
Level 21
 70
     0
 62
     7
  6
Continuous
370
     0
390
716B6
347
716B9
348
0
1001
AcCmTransparency
1071
 33554687
  0
LAYER
  5
1C
330
716CF
100
AcDbSymbolTableRecord
100
AcDbLayerTableRecord
  2
Level 22
 70
     0
 62
     7
  6
Continuous
370
     0
390
716B6
347
716B9
348
0
1001
AcCmTransparency
1071
 33554687
  0
LAYER
  5
1D
330
716CF
100
AcDbSymbolTableRecord
100
AcDbLayerTableRecord
  2
Level 23
 70
     0
 62
     7
  6
Continuous
370
     0
390
716B6
347
716B9
348
0
1001
AcCmTransparency
1071
 33554687
  0
LAYER
  5
1E
330
716CF
100
AcDbSymbolTableRecord
100
AcDbLayerTableRecord
  2
Level 24
 70
     0
 62
     7
  6
Continuous
370
     0
390
716B6
347
716B9
348
0
1001
AcCmTransparency
1071
 33554687
  0
LAYER
  5
1F
330
716CF
100
AcDbSymbolTableRecord
100
AcDbLayerTableRecord
  2
Level 25
 70
     0
 62
     7
  6
Continuous
370
     0
390
716B6
347
716B9
348
0
1001
AcCmTransparency
1071
 33554687
  0
LAYER
  5
20
330
716CF
100
AcDbSymbolTableRecord
100
AcDbLayerTableRecord
  2
Level 26
 70
     0
 62
     7
  6
Continuous
370
     0
390
716B6
347
716B9
348
0
1001
AcCmTransparency
1071
 33554687
  0
LAYER
  5
21
330
716CF
100
AcDbSymbolTableRecord
100
AcDbLayerTableRecord
  2
Level 27
 70
     0
 62
     7
  6
Continuous
370
     0
390
716B6
347
716B9
348
0
1001
AcCmTransparency
1071
 33554687
  0
LAYER
  5
22
330
716CF
100
AcDbSymbolTableRecord
100
AcDbLayerTableRecord
  2
Level 28
 70
     0
 62
     7
  6
Continuous
370
     0
390
716B6
347
716B9
348
0
1001
AcCmTransparency
1071
 33554687
  0
LAYER
  5
23
330
716CF
100
AcDbSymbolTableRecord
100
AcDbLayerTableRecord
  2
Level 29
 70
     0
 62
     7
  6
Continuous
370
     0
390
716B6
347
716B9
348
0
1001
AcCmTransparency
1071
 33554687
  0
LAYER
  5
24
330
716CF
100
AcDbSymbolTableRecord
100
AcDbLayerTableRecord
  2
Level 30
 70
     0
 62
     7
  6
Continuous
370
     0
390
716B6
347
716B9
348
0
1001
AcCmTransparency
1071
 33554687
  0
LAYER
  5
25
330
716CF
100
AcDbSymbolTableRecord
100
AcDbLayerTableRecord
  2
Level 31
 70
     0
 62
     7
  6
Continuous
370
     0
390
716B6
347
716B9
348
0
1001
AcCmTransparency
1071
 33554687
  0
LAYER
  5
26
330
716CF
100
AcDbSymbolTableRecord
100
AcDbLayerTableRecord
  2
Level 32
 70
     0
 62
     7
  6
Continuous
370
     0
390
716B6
347
716B9
348
0
1001
AcCmTransparency
1071
 33554687
  0
LAYER
  5
27
330
716CF
100
AcDbSymbolTableRecord
100
AcDbLayerTableRecord
  2
Level 33
 70
     0
 62
     7
  6
Continuous
370
     0
390
716B6
347
716B9
348
0
1001
AcCmTransparency
1071
 33554687
  0
LAYER
  5
28
330
716CF
100
AcDbSymbolTableRecord
100
AcDbLayerTableRecord
  2
Level 34
 70
     0
 62
     7
  6
Continuous
370
     0
390
716B6
347
716B9
348
0
1001
AcCmTransparency
1071
 33554687
  0
LAYER
  5
29
330
716CF
100
AcDbSymbolTableRecord
100
AcDbLayerTableRecord
  2
Level 35
 70
     0
 62
     7
  6
Continuous
370
     0
390
716B6
347
716B9
348
0
1001
AcCmTransparency
1071
 33554687
  0
LAYER
  5
2A
330
716CF
100
AcDbSymbolTableRecord
100
AcDbLayerTableRecord
  2
Level 36
 70
     0
 62
     7
  6
Continuous
370
     0
390
716B6
347
716B9
348
0
1001
AcCmTransparency
1071
 33554687
  0
LAYER
  5
2B
330
716CF
100
AcDbSymbolTableRecord
100
AcDbLayerTableRecord
  2
Level 37
 70
     0
 62
     7
  6
Continuous
370
     0
390
716B6
347
716B9
348
0
1001
AcCmTransparency
1071
 33554687
  0
LAYER
  5
2C
330
716CF
100
AcDbSymbolTableRecord
100
AcDbLayerTableRecord
  2
Level 38
 70
     0
 62
     7
  6
Continuous
370
     0
390
716B6
347
716B9
348
0
1001
AcCmTransparency
1071
 33554687
  0
LAYER
  5
2D
330
716CF
100
AcDbSymbolTableRecord
100
AcDbLayerTableRecord
  2
Level 39
 70
     0
 62
     7
  6
Continuous
370
     0
390
716B6
347
716B9
348
0
1001
AcCmTransparency
1071
 33554687
  0
LAYER
  5
2E
330
716CF
100
AcDbSymbolTableRecord
100
AcDbLayerTableRecord
  2
Level 40
 70
     0
 62
     7
  6
Continuous
370
     0
390
716B6
347
716B9
348
0
1001
AcCmTransparency
1071
 33554687
  0
LAYER
  5
2F
330
716CF
100
AcDbSymbolTableRecord
100
AcDbLayerTableRecord
  2
Level 41
 70
     0
 62
     7
  6
Continuous
370
     0
390
716B6
347
716B9
348
0
1001
AcCmTransparency
1071
 33554687
  0
LAYER
  5
30
330
716CF
100
AcDbSymbolTableRecord
100
AcDbLayerTableRecord
  2
Level 42
 70
     0
 62
     7
  6
Continuous
370
     0
390
716B6
347
716B9
348
0
1001
AcCmTransparency
1071
 33554687
  0
LAYER
  5
31
330
716CF
100
AcDbSymbolTableRecord
100
AcDbLayerTableRecord
  2
Level 43
 70
     0
 62
     7
  6
Continuous
370
     0
390
716B6
347
716B9
348
0
1001
AcCmTransparency
1071
 33554687
  0
LAYER
  5
32
330
716CF
100
AcDbSymbolTableRecord
100
AcDbLayerTableRecord
  2
Level 44
 70
     0
 62
     7
  6
Continuous
370
     0
390
716B6
347
716B9
348
0
1001
AcCmTransparency
1071
 33554687
  0
LAYER
  5
33
330
716CF
100
AcDbSymbolTableRecord
100
AcDbLayerTableRecord
  2
Level 45
 70
     0
 62
     7
  6
Continuous
370
     0
390
716B6
347
716B9
348
0
1001
AcCmTransparency
1071
 33554687
  0
LAYER
  5
34
330
716CF
100
AcDbSymbolTableRecord
100
AcDbLayerTableRecord
  2
Level 46
 70
     0
 62
     7
  6
Continuous
370
     0
390
716B6
347
716B9
348
0
1001
AcCmTransparency
1071
 33554687
  0
LAYER
  5
35
330
716CF
100
AcDbSymbolTableRecord
100
AcDbLayerTableRecord
  2
Level 47
 70
     0
 62
     7
  6
Continuous
370
     0
390
716B6
347
716B9
348
0
1001
AcCmTransparency
1071
 33554687
  0
LAYER
  5
36
330
716CF
100
AcDbSymbolTableRecord
100
AcDbLayerTableRecord
  2
Level 48
 70
     0
 62
     7
  6
Continuous
370
     0
390
716B6
347
716B9
348
0
1001
AcCmTransparency
1071
 33554687
  0
LAYER
  5
37
330
716CF
100
AcDbSymbolTableRecord
100
AcDbLayerTableRecord
  2
Level 49
 70
     0
 62
     7
  6
Continuous
370
     0
390
716B6
347
716B9
348
0
1001
AcCmTransparency
1071
 33554687
  0
LAYER
  5
38
330
716CF
100
AcDbSymbolTableRecord
100
AcDbLayerTableRecord
  2
Level 50
 70
     0
 62
     7
  6
Continuous
370
     0
390
716B6
347
716B9
348
0
1001
AcCmTransparency
1071
 33554687
  0
LAYER
  5
39
330
716CF
100
AcDbSymbolTableRecord
100
AcDbLayerTableRecord
  2
Level 51
 70
     0
 62
     7
  6
Continuous
370
     0
390
716B6
347
716B9
348
0
1001
AcCmTransparency
1071
 33554687
  0
LAYER
  5
3A
330
716CF
100
AcDbSymbolTableRecord
100
AcDbLayerTableRecord
  2
Level 52
 70
     0
 62
     7
  6
Continuous
370
     0
390
716B6
347
716B9
348
0
1001
AcCmTransparency
1071
 33554687
  0
LAYER
  5
3B
330
716CF
100
AcDbSymbolTableRecord
100
AcDbLayerTableRecord
  2
Level 53
 70
     0
 62
     7
  6
Continuous
370
     0
390
716B6
347
716B9
348
0
1001
AcCmTransparency
1071
 33554687
  0
LAYER
  5
3C
330
716CF
100
AcDbSymbolTableRecord
100
AcDbLayerTableRecord
  2
Level 54
 70
     0
 62
     7
  6
Continuous
370
     0
390
716B6
347
716B9
348
0
1001
AcCmTransparency
1071
 33554687
  0
LAYER
  5
3D
330
716CF
100
AcDbSymbolTableRecord
100
AcDbLayerTableRecord
  2
Level 55
 70
     0
 62
     7
  6
Continuous
370
     0
390
716B6
347
716B9
348
0
1001
AcCmTransparency
1071
 33554687
  0
LAYER
  5
3E
330
716CF
100
AcDbSymbolTableRecord
100
AcDbLayerTableRecord
  2
Level 56
 70
     0
 62
     7
  6
Continuous
370
     0
390
716B6
347
716B9
348
0
1001
AcCmTransparency
1071
 33554687
  0
LAYER
  5
3F
330
716CF
100
AcDbSymbolTableRecord
100
AcDbLayerTableRecord
  2
Level 57
 70
     0
 62
     7
  6
Continuous
370
     0
390
716B6
347
716B9
348
0
1001
AcCmTransparency
1071
 33554687
  0
LAYER
  5
40
330
716CF
100
AcDbSymbolTableRecord
100
AcDbLayerTableRecord
  2
Level 58
 70
     0
 62
     7
  6
Continuous
370
     0
390
716B6
347
716B9
348
0
1001
AcCmTransparency
1071
 33554687
  0
LAYER
  5
41
330
716CF
100
AcDbSymbolTableRecord
100
AcDbLayerTableRecord
  2
Level 59
 70
     0
 62
     7
  6
Continuous
370
     0
390
716B6
347
716B9
348
0
1001
AcCmTransparency
1071
 33554687
  0
LAYER
  5
42
330
716CF
100
AcDbSymbolTableRecord
100
AcDbLayerTableRecord
  2
Level 60
 70
     0
 62
     7
  6
Continuous
370
     0
390
716B6
347
716B9
348
0
1001
AcCmTransparency
1071
 33554687
  0
LAYER
  5
43
330
716CF
100
AcDbSymbolTableRecord
100
AcDbLayerTableRecord
  2
Level 61
 70
     0
 62
     7
  6
Continuous
370
     0
390
716B6
347
716B9
348
0
1001
AcCmTransparency
1071
 33554687
  0
LAYER
  5
44
330
716CF
100
AcDbSymbolTableRecord
100
AcDbLayerTableRecord
  2
Level 62
 70
     0
 62
     7
  6
Continuous
370
     0
390
716B6
347
716B9
348
0
1001
AcCmTransparency
1071
 33554687
  0
LAYER
  5
45
330
716CF
100
AcDbSymbolTableRecord
100
AcDbLayerTableRecord
  2
Level 63
 70
     0
 62
     7
  6
Continuous
370
     0
390
716B6
347
716B9
348
0
1001
AcCmTransparency
1071
 33554687
  0
LAYER
  5
50CA0
330
716CF
100
AcDbSymbolTableRecord
100
AcDbLayerTableRecord
  2
25
 70
     0
 62
     7
  6
Continuous
370
     0
390
716B6
347
716B9
348
0
1001
AcCmTransparency
1071
 33554687
  0
ENDTAB
  0
TABLE
  2
STYLE
  5
716D2
330
0
100
AcDbSymbolTable
 70
     1
  0
STYLE
  5
716D3
330
716D2
100
AcDbSymbolTableRecord
100
AcDbTextStyleTableRecord
  2
Standard
 70
     0
 40
0.0
 41
1.0
 50
0.0
 71
     0
 42
100.0
  3
txt
  4

  0
ENDTAB
  0
TABLE
  2
VIEW
  5
716D8
330
0
100
AcDbSymbolTable
 70
     0
  0
ENDTAB
  0
TABLE
  2
UCS
  5
716D9
330
0
100
AcDbSymbolTable
 70
     0
  0
ENDTAB
  0
TABLE
  2
APPID
  5
716DE
330
0
100
AcDbSymbolTable
 70
     3
  0
APPID
  5
716DF
330
716DE
100
AcDbSymbolTableRecord
100
AcDbRegAppTableRecord
  2
ACAD
 70
     0
  0
APPID
  5
716CE
330
716DE
100
AcDbSymbolTableRecord
100
AcDbRegAppTableRecord
  2
ACAD_PSEXT
 70
     0
  0
APPID
  5
71722
330
716DE
100
AcDbSymbolTableRecord
100
AcDbRegAppTableRecord
  2
AcCmTransparency
 70
     0
  0
ENDTAB
  0
TABLE
  2
DIMSTYLE
  5
716E0
330
0
100
AcDbSymbolTable
 70
     1
100
AcDbDimStyleTable
 71
     1
340
716E1
  0
DIMSTYLE
105
716E1
330
716E0
100
AcDbSymbolTableRecord
100
AcDbDimStyleTableRecord
  2
Standard
 70
     0
340
716D3
  0
ENDTAB
  0
TABLE
  2
BLOCK_RECORD
  5
716B0
330
0
100
AcDbSymbolTable
 70
   177
  0
BLOCK_RECORD
  5
716B1
330
716B0
100
AcDbSymbolTableRecord
100
AcDbBlockTableRecord
  2
*Model_Space
340
716C4
 70
     0
280
     1
281
     0
  0
BLOCK_RECORD
  5
716C8
330
716B0
100
AcDbSymbolTableRecord
100
AcDbBlockTableRecord
  2
*Paper_Space
340
716CB
 70
     0
280
     1
281
     0
  0
BLOCK_RECORD
  5
71698
330
716B0
100
AcDbSymbolTableRecord
100
AcDbBlockTableRecord
  2
*U0
340
0
 70
     0
280
     1
281
     0
  0
BLOCK_RECORD
  5
7169A
330
716B0
100
AcDbSymbolTableRecord
100
AcDbBlockTableRecord
  2
*U1
340
0
 70
     0
280
     1
281
     0
  0
BLOCK_RECORD
  5
716A0
330
716B0
100
AcDbSymbolTableRecord
100
AcDbBlockTableRecord
  2
*U2
340
0
 70
     0
280
     1
281
     0
  0
BLOCK_RECORD
  5
716A9
330
716B0
100
AcDbSymbolTableRecord
100
AcDbBlockTableRecord
  2
*U3
340
0
 70
     0
280
     1
281
     0
  0
BLOCK_RECORD
  5
716AB
330
716B0
100
AcDbSymbolTableRecord
100
AcDbBlockTableRecord
  2
*U4
340
0
 70
     0
280
     1
281
     0
  0
BLOCK_RECORD
  5
716AD
330
716B0
100
AcDbSymbolTableRecord
100
AcDbBlockTableRecord
  2
*U5
340
0
 70
     0
280
     1
281
     0
  0
BLOCK_RECORD
  5
71731
330
716B0
100
AcDbSymbolTableRecord
100
AcDbBlockTableRecord
  2
A3010S
340
0
102
{BLKREFS
331
71448
102
}
 70
     0
280
     1
281
     0
  0
BLOCK_RECORD
  5
71734
330
716B0
100
AcDbSymbolTableRecord
100
AcDbBlockTableRecord
  2
Feature Solid
340
0
102
{BLKREFS
331
71449
102
}
 70
     0
280
     1
281
     0
  0
BLOCK_RECORD
  5
71737
330
716B0
100
AcDbSymbolTableRecord
100
AcDbBlockTableRecord
  2
UNITE
340
0
102
{BLKREFS
331
7144A
102
}
 70
     0
280
     1
281
     0
  0
BLOCK_RECORD
  5
7173A
330
716B0
100
AcDbSymbolTableRecord
100
AcDbBlockTableRecord
  2
Feature Solid_1
340
0
102
{BLKREFS
331
7144B
102
}
 70
     0
280
     1
281
     0
  0
BLOCK_RECORD
  5
7173D
330
716B0
100
AcDbSymbolTableRecord
100
AcDbBlockTableRecord
  2
UNITE_1
340
0
102
{BLKREFS
331
7144C
102
}
 70
     0
280
     1
281
     0
  0
BLOCK_RECORD
  5
71740
330
716B0
100
AcDbSymbolTableRecord
100
AcDbBlockTableRecord
  2
Feature Solid_2
340
0
102
{BLKREFS
331
7144D
102
}
 70
     0
280
     1
281
     0
  0
BLOCK_RECORD
  5
71743
330
716B0
100
AcDbSymbolTableRecord
100
AcDbBlockTableRecord
  2
UNITE_2
340
0
102
{BLKREFS
331
7144E
102
}
 70
     0
280
     1
281
     0
  0
BLOCK_RECORD
  5
71746
330
716B0
100
AcDbSymbolTableRecord
100
AcDbBlockTableRecord
  2
Feature Solid_3
340
0
102
{BLKREFS
331
71451
102
}
 70
     0
280
     1
281
     0
  0
BLOCK_RECORD
  5
71749
330
716B0
100
AcDbSymbolTableRecord
100
AcDbBlockTableRecord
  2
ROUNDE
340
0
102
{BLKREFS
331
71452
102
}
 70
     0
280
     1
281
     0
  0
BLOCK_RECORD
  5
7174C
330
716B0
100
AcDbSymbolTableRecord
100
AcDbBlockTableRecord
  2
ROUNDE_1
340
0
102
{BLKREFS
331
71453
102
}
 70
     0
280
     1
281
     0
  0
BLOCK_RECORD
  5
7174F
330
716B0
100
AcDbSymbolTableRecord
100
AcDbBlockTableRecord
  2
ROUNDE_2
340
0
102
{BLKREFS
331
71454
102
}
 70
     0
280
     1
281
     0
  0
BLOCK_RECORD
  5
71752
330
716B0
100
AcDbSymbolTableRecord
100
AcDbBlockTableRecord
  2
SUBTRC
340
0
102
{BLKREFS
331
71455
102
}
 70
     0
280
     1
281
     0
  0
BLOCK_RECORD
  5
71755
330
716B0
100
AcDbSymbolTableRecord
100
AcDbBlockTableRecord
  2
Feature Solid_4
340
0
102
{BLKREFS
331
71458
102
}
 70
     0
280
     1
281
     0
  0
BLOCK_RECORD
  5
71758
330
716B0
100
AcDbSymbolTableRecord
100
AcDbBlockTableRecord
  2
SUBTRC_1
340
0
102
{BLKREFS
331
71459
102
}
 70
     0
280
     1
281
     0
  0
BLOCK_RECORD
  5
7175B
330
716B0
100
AcDbSymbolTableRecord
100
AcDbBlockTableRecord
  2
Feature Solid_5
340
0
102
{BLKREFS
331
7145C
102
}
 70
     0
280
     1
281
     0
  0
BLOCK_RECORD
  5
7175E
330
716B0
100
AcDbSymbolTableRecord
100
AcDbBlockTableRecord
  2
UNITE_3
340
0
102
{BLKREFS
331
7145D
102
}
 70
     0
280
     1
281
     0
  0
BLOCK_RECORD
  5
71761
330
716B0
100
AcDbSymbolTableRecord
100
AcDbBlockTableRecord
  2
Feature Solid_6
340
0
102
{BLKREFS
331
7145E
102
}
 70
     0
280
     1
281
     0
  0
BLOCK_RECORD
  5
71764
330
716B0
100
AcDbSymbolTableRecord
100
AcDbBlockTableRecord
  2
SUBTRC_2
340
0
102
{BLKREFS
331
7145F
102
}
 70
     0
280
     1
281
     0
  0
BLOCK_RECORD
  5
71767
330
716B0
100
AcDbSymbolTableRecord
100
AcDbBlockTableRecord
  2
Feature Solid_7
340
0
102
{BLKREFS
331
71462
102
}
 70
     0
280
     1
281
     0
  0
BLOCK_RECORD
  5
7176A
330
716B0
100
AcDbSymbolTableRecord
100
AcDbBlockTableRecord
  2
ROUNDE_3
340
0
102
{BLKREFS
331
71463
102
}
 70
     0
280
     1
281
     0
  0
BLOCK_RECORD
  5
7176D
330
716B0
100
AcDbSymbolTableRecord
100
AcDbBlockTableRecord
  2
SUBTRC_3
340
0
102
{BLKREFS
331
71464
102
}
 70
     0
280
     1
281
     0
  0
BLOCK_RECORD
  5
71770
330
716B0
100
AcDbSymbolTableRecord
100
AcDbBlockTableRecord
  2
Feature Solid_8
340
0
102
{BLKREFS
331
71467
102
}
 70
     0
280
     1
281
     0
  0
BLOCK_RECORD
  5
71773
330
716B0
100
AcDbSymbolTableRecord
100
AcDbBlockTableRecord
  2
UNITE_4
340
0
102
{BLKREFS
331
71468
102
}
 70
     0
280
     1
281
     0
  0
BLOCK_RECORD
  5
71776
330
716B0
100
AcDbSymbolTableRecord
100
AcDbBlockTableRecord
  2
Feature Solid_9
340
0
102
{BLKREFS
331
71469
102
}
 70
     0
280
     1
281
     0
  0
BLOCK_RECORD
  5
71779
330
716B0
100
AcDbSymbolTableRecord
100
AcDbBlockTableRecord
  2
SLAB
340
0
102
{BLKREFS
331
7146A
102
}
 70
     0
280
     1
281
     0
  0
BLOCK_RECORD
  5
7177C
330
716B0
100
AcDbSymbolTableRecord
100
AcDbBlockTableRecord
  2
Feature Solid_10
340
0
102
{BLKREFS
331
7146D
102
}
 70
     0
280
     1
281
     0
  0
BLOCK_RECORD
  5
7177F
330
716B0
100
AcDbSymbolTableRecord
100
AcDbBlockTableRecord
  2
CONE
340
0
102
{BLKREFS
331
7146E
102
}
 70
     0
280
     1
281
     0
  0
BLOCK_RECORD
  5
71782
330
716B0
100
AcDbSymbolTableRecord
100
AcDbBlockTableRecord
  2
Feature Solid_11
340
0
102
{BLKREFS
331
71470
102
}
 70
     0
280
     1
281
     0
  0
BLOCK_RECORD
  5
71785
330
716B0
100
AcDbSymbolTableRecord
100
AcDbBlockTableRecord
  2
DDREVL
340
0
102
{BLKREFS
331
71471
102
}
 70
     0
280
     1
281
     0
  0
BLOCK_RECORD
  5
71788
330
716B0
100
AcDbSymbolTableRecord
100
AcDbBlockTableRecord
  2
Feature Solid_12
340
0
102
{BLKREFS
331
71496
102
}
 70
     0
280
     1
281
     0
  0
BLOCK_RECORD
  5
7178B
330
716B0
100
AcDbSymbolTableRecord
100
AcDbBlockTableRecord
  2
UNITE_5
340
0
102
{BLKREFS
331
71497
102
}
 70
     0
280
     1
281
     0
  0
BLOCK_RECORD
  5
7178E
330
716B0
100
AcDbSymbolTableRecord
100
AcDbBlockTableRecord
  2
Feature Solid_13
340
0
102
{BLKREFS
331
71498
102
}
 70
     0
280
     1
281
     0
  0
BLOCK_RECORD
  5
71791
330
716B0
100
AcDbSymbolTableRecord
100
AcDbBlockTableRecord
  2
DDREVL_1
340
0
102
{BLKREFS
331
71499
102
}
 70
     0
280
     1
281
     0
  0
BLOCK_RECORD
  5
71794
330
716B0
100
AcDbSymbolTableRecord
100
AcDbBlockTableRecord
  2
Feature Solid_14
340
0
102
{BLKREFS
331
714A0
102
}
 70
     0
280
     1
281
     0
  0
BLOCK_RECORD
  5
71797
330
716B0
100
AcDbSymbolTableRecord
100
AcDbBlockTableRecord
  2
ROUNDE_4
340
0
102
{BLKREFS
331
714A1
102
}
 70
     0
280
     1
281
     0
  0
BLOCK_RECORD
  5
7179A
330
716B0
100
AcDbSymbolTableRecord
100
AcDbBlockTableRecord
  2
ROUNDE_5
340
0
102
{BLKREFS
331
714A2
102
}
 70
     0
280
     1
281
     0
  0
BLOCK_RECORD
  5
7179D
330
716B0
100
AcDbSymbolTableRecord
100
AcDbBlockTableRecord
  2
ROUNDE_6
340
0
102
{BLKREFS
331
714A3
102
}
 70
     0
280
     1
281
     0
  0
BLOCK_RECORD
  5
717A0
330
716B0
100
AcDbSymbolTableRecord
100
AcDbBlockTableRecord
  2
SUBTRC_4
340
0
102
{BLKREFS
331
714A4
102
}
 70
     0
280
     1
281
     0
  0
BLOCK_RECORD
  5
717A3
330
716B0
100
AcDbSymbolTableRecord
100
AcDbBlockTableRecord
  2
Feature Solid_15
340
0
102
{BLKREFS
331
714A7
102
}
 70
     0
280
     1
281
     0
  0
BLOCK_RECORD
  5
717A6
330
716B0
100
AcDbSymbolTableRecord
100
AcDbBlockTableRecord
  2
SUBTRC_5
340
0
102
{BLKREFS
331
714A8
102
}
 70
     0
280
     1
281
     0
  0
BLOCK_RECORD
  5
717A9
330
716B0
100
AcDbSymbolTableRecord
100
AcDbBlockTableRecord
  2
Feature Solid_16
340
0
102
{BLKREFS
331
714AB
102
}
 70
     0
280
     1
281
     0
  0
BLOCK_RECORD
  5
717AC
330
716B0
100
AcDbSymbolTableRecord
100
AcDbBlockTableRecord
  2
UNITE_6
340
0
102
{BLKREFS
331
714AC
102
}
 70
     0
280
     1
281
     0
  0
BLOCK_RECORD
  5
717AF
330
716B0
100
AcDbSymbolTableRecord
100
AcDbBlockTableRecord
  2
Feature Solid_17
340
0
102
{BLKREFS
331
714AD
102
}
 70
     0
280
     1
281
     0
  0
BLOCK_RECORD
  5
717B2
330
716B0
100
AcDbSymbolTableRecord
100
AcDbBlockTableRecord
  2
SUBTRC_6
340
0
102
{BLKREFS
331
714AE
102
}
 70
     0
280
     1
281
     0
  0
BLOCK_RECORD
  5
717B5
330
716B0
100
AcDbSymbolTableRecord
100
AcDbBlockTableRecord
  2
Feature Solid_18
340
0
102
{BLKREFS
331
714B1
102
}
 70
     0
280
     1
281
     0
  0
BLOCK_RECORD
  5
717B8
330
716B0
100
AcDbSymbolTableRecord
100
AcDbBlockTableRecord
  2
ROUNDE_7
340
0
102
{BLKREFS
331
714B2
102
}
 70
     0
280
     1
281
     0
  0
BLOCK_RECORD
  5
717BB
330
716B0
100
AcDbSymbolTableRecord
100
AcDbBlockTableRecord
  2
SUBTRC_7
340
0
102
{BLKREFS
331
714B3
102
}
 70
     0
280
     1
281
     0
  0
BLOCK_RECORD
  5
717BE
330
716B0
100
AcDbSymbolTableRecord
100
AcDbBlockTableRecord
  2
Feature Solid_19
340
0
102
{BLKREFS
331
714B4
102
}
 70
     0
280
     1
281
     0
  0
BLOCK_RECORD
  5
717C1
330
716B0
100
AcDbSymbolTableRecord
100
AcDbBlockTableRecord
  2
CONE_1
340
0
102
{BLKREFS
331
714B5
102
}
 70
     0
280
     1
281
     0
  0
BLOCK_RECORD
  5
717C4
330
716B0
100
AcDbSymbolTableRecord
100
AcDbBlockTableRecord
  2
Feature Solid_20
340
0
102
{BLKREFS
331
714BE
102
}
 70
     0
280
     1
281
     0
  0
BLOCK_RECORD
  5
717C7
330
716B0
100
AcDbSymbolTableRecord
100
AcDbBlockTableRecord
  2
UNITE_7
340
0
102
{BLKREFS
331
714BF
102
}
 70
     0
280
     1
281
     0
  0
BLOCK_RECORD
  5
717CA
330
716B0
100
AcDbSymbolTableRecord
100
AcDbBlockTableRecord
  2
Feature Solid_21
340
0
102
{BLKREFS
331
714C0
102
}
 70
     0
280
     1
281
     0
  0
BLOCK_RECORD
  5
717CD
330
716B0
100
AcDbSymbolTableRecord
100
AcDbBlockTableRecord
  2
SLAB_1
340
0
102
{BLKREFS
331
714C1
102
}
 70
     0
280
     1
281
     0
  0
BLOCK_RECORD
  5
717D0
330
716B0
100
AcDbSymbolTableRecord
100
AcDbBlockTableRecord
  2
Feature Solid_22
340
0
102
{BLKREFS
331
714C4
102
}
 70
     0
280
     1
281
     0
  0
BLOCK_RECORD
  5
717D3
330
716B0
100
AcDbSymbolTableRecord
100
AcDbBlockTableRecord
  2
CONE_2
340
0
102
{BLKREFS
331
714C5
102
}
 70
     0
280
     1
281
     0
  0
BLOCK_RECORD
  5
717D6
330
716B0
100
AcDbSymbolTableRecord
100
AcDbBlockTableRecord
  2
Feature Solid_23
340
0
102
{BLKREFS
331
714CC
102
}
 70
     0
280
     1
281
     0
  0
BLOCK_RECORD
  5
717D9
330
716B0
100
AcDbSymbolTableRecord
100
AcDbBlockTableRecord
  2
DDREVL_2
340
0
102
{BLKREFS
331
714CD
102
}
 70
     0
280
     1
281
     0
  0
BLOCK_RECORD
  5
717DC
330
716B0
100
AcDbSymbolTableRecord
100
AcDbBlockTableRecord
  2
Feature Solid_24
340
0
102
{BLKREFS
331
71508
102
}
 70
     0
280
     1
281
     0
  0
BLOCK_RECORD
  5
717DF
330
716B0
100
AcDbSymbolTableRecord
100
AcDbBlockTableRecord
  2
UNITE_8
340
0
102
{BLKREFS
331
71509
102
}
 70
     0
280
     1
281
     0
  0
BLOCK_RECORD
  5
717E2
330
716B0
100
AcDbSymbolTableRecord
100
AcDbBlockTableRecord
  2
Feature Solid_25
340
0
102
{BLKREFS
331
7150A
102
}
 70
     0
280
     1
281
     0
  0
BLOCK_RECORD
  5
717E5
330
716B0
100
AcDbSymbolTableRecord
100
AcDbBlockTableRecord
  2
UNITE_9
340
0
102
{BLKREFS
331
7150B
102
}
 70
     0
280
     1
281
     0
  0
BLOCK_RECORD
  5
717E8
330
716B0
100
AcDbSymbolTableRecord
100
AcDbBlockTableRecord
  2
Feature Solid_26
340
0
102
{BLKREFS
331
7150C
102
}
 70
     0
280
     1
281
     0
  0
BLOCK_RECORD
  5
717EB
330
716B0
100
AcDbSymbolTableRecord
100
AcDbBlockTableRecord
  2
UNITE_10
340
0
102
{BLKREFS
331
7150D
102
}
 70
     0
280
     1
281
     0
  0
BLOCK_RECORD
  5
717EE
330
716B0
100
AcDbSymbolTableRecord
100
AcDbBlockTableRecord
  2
Feature Solid_27
340
0
102
{BLKREFS
331
71510
102
}
 70
     0
280
     1
281
     0
  0
BLOCK_RECORD
  5
717F1
330
716B0
100
AcDbSymbolTableRecord
100
AcDbBlockTableRecord
  2
ROUNDE_8
340
0
102
{BLKREFS
331
71511
102
}
 70
     0
280
     1
281
     0
  0
BLOCK_RECORD
  5
717F4
330
716B0
100
AcDbSymbolTableRecord
100
AcDbBlockTableRecord
  2
ROUNDE_9
340
0
102
{BLKREFS
331
71512
102
}
 70
     0
280
     1
281
     0
  0
BLOCK_RECORD
  5
717F7
330
716B0
100
AcDbSymbolTableRecord
100
AcDbBlockTableRecord
  2
ROUNDE_10
340
0
102
{BLKREFS
331
71513
102
}
 70
     0
280
     1
281
     0
  0
BLOCK_RECORD
  5
717FA
330
716B0
100
AcDbSymbolTableRecord
100
AcDbBlockTableRecord
  2
SUBTRC_8
340
0
102
{BLKREFS
331
71514
102
}
 70
     0
280
     1
281
     0
  0
BLOCK_RECORD
  5
717FD
330
716B0
100
AcDbSymbolTableRecord
100
AcDbBlockTableRecord
  2
Feature Solid_28
340
0
102
{BLKREFS
331
71517
102
}
 70
     0
280
     1
281
     0
  0
BLOCK_RECORD
  5
71800
330
716B0
100
AcDbSymbolTableRecord
100
AcDbBlockTableRecord
  2
SUBTRC_9
340
0
102
{BLKREFS
331
71518
102
}
 70
     0
280
     1
281
     0
  0
BLOCK_RECORD
  5
71803
330
716B0
100
AcDbSymbolTableRecord
100
AcDbBlockTableRecord
  2
Feature Solid_29
340
0
102
{BLKREFS
331
7151B
102
}
 70
     0
280
     1
281
     0
  0
BLOCK_RECORD
  5
71806
330
716B0
100
AcDbSymbolTableRecord
100
AcDbBlockTableRecord
  2
UNITE_11
340
0
102
{BLKREFS
331
7151C
102
}
 70
     0
280
     1
281
     0
  0
BLOCK_RECORD
  5
71809
330
716B0
100
AcDbSymbolTableRecord
100
AcDbBlockTableRecord
  2
Feature Solid_30
340
0
102
{BLKREFS
331
7151D
102
}
 70
     0
280
     1
281
     0
  0
BLOCK_RECORD
  5
7180C
330
716B0
100
AcDbSymbolTableRecord
100
AcDbBlockTableRecord
  2
SUBTRC_10
340
0
102
{BLKREFS
331
7151E
102
}
 70
     0
280
     1
281
     0
  0
BLOCK_RECORD
  5
7180F
330
716B0
100
AcDbSymbolTableRecord
100
AcDbBlockTableRecord
  2
Feature Solid_31
340
0
102
{BLKREFS
331
71521
102
}
 70
     0
280
     1
281
     0
  0
BLOCK_RECORD
  5
71812
330
716B0
100
AcDbSymbolTableRecord
100
AcDbBlockTableRecord
  2
ROUNDE_11
340
0
102
{BLKREFS
331
71522
102
}
 70
     0
280
     1
281
     0
  0
BLOCK_RECORD
  5
71815
330
716B0
100
AcDbSymbolTableRecord
100
AcDbBlockTableRecord
  2
SUBTRC_11
340
0
102
{BLKREFS
331
71523
102
}
 70
     0
280
     1
281
     0
  0
BLOCK_RECORD
  5
71818
330
716B0
100
AcDbSymbolTableRecord
100
AcDbBlockTableRecord
  2
Feature Solid_32
340
0
102
{BLKREFS
331
71526
102
}
 70
     0
280
     1
281
     0
  0
BLOCK_RECORD
  5
7181B
330
716B0
100
AcDbSymbolTableRecord
100
AcDbBlockTableRecord
  2
UNITE_12
340
0
102
{BLKREFS
331
71527
102
}
 70
     0
280
     1
281
     0
  0
BLOCK_RECORD
  5
7181E
330
716B0
100
AcDbSymbolTableRecord
100
AcDbBlockTableRecord
  2
Feature Solid_33
340
0
102
{BLKREFS
331
71528
102
}
 70
     0
280
     1
281
     0
  0
BLOCK_RECORD
  5
71821
330
716B0
100
AcDbSymbolTableRecord
100
AcDbBlockTableRecord
  2
SLAB_2
340
0
102
{BLKREFS
331
71529
102
}
 70
     0
280
     1
281
     0
  0
BLOCK_RECORD
  5
71824
330
716B0
100
AcDbSymbolTableRecord
100
AcDbBlockTableRecord
  2
Feature Solid_34
340
0
102
{BLKREFS
331
7152C
102
}
 70
     0
280
     1
281
     0
  0
BLOCK_RECORD
  5
71827
330
716B0
100
AcDbSymbolTableRecord
100
AcDbBlockTableRecord
  2
CONE_3
340
0
102
{BLKREFS
331
7152D
102
}
 70
     0
280
     1
281
     0
  0
BLOCK_RECORD
  5
7182A
330
716B0
100
AcDbSymbolTableRecord
100
AcDbBlockTableRecord
  2
Feature Solid_35
340
0
102
{BLKREFS
331
7152F
102
}
 70
     0
280
     1
281
     0
  0
BLOCK_RECORD
  5
7182D
330
716B0
100
AcDbSymbolTableRecord
100
AcDbBlockTableRecord
  2
DDREVL_3
340
0
102
{BLKREFS
331
71530
102
}
 70
     0
280
     1
281
     0
  0
BLOCK_RECORD
  5
71830
330
716B0
100
AcDbSymbolTableRecord
100
AcDbBlockTableRecord
  2
Feature Solid_36
340
0
102
{BLKREFS
331
71555
102
}
 70
     0
280
     1
281
     0
  0
BLOCK_RECORD
  5
71833
330
716B0
100
AcDbSymbolTableRecord
100
AcDbBlockTableRecord
  2
UNITE_13
340
0
102
{BLKREFS
331
71556
102
}
 70
     0
280
     1
281
     0
  0
BLOCK_RECORD
  5
71836
330
716B0
100
AcDbSymbolTableRecord
100
AcDbBlockTableRecord
  2
Feature Solid_37
340
0
102
{BLKREFS
331
71557
102
}
 70
     0
280
     1
281
     0
  0
BLOCK_RECORD
  5
71839
330
716B0
100
AcDbSymbolTableRecord
100
AcDbBlockTableRecord
  2
DDREVL_4
340
0
102
{BLKREFS
331
71558
102
}
 70
     0
280
     1
281
     0
  0
BLOCK_RECORD
  5
7183C
330
716B0
100
AcDbSymbolTableRecord
100
AcDbBlockTableRecord
  2
Feature Solid_38
340
0
102
{BLKREFS
331
7155F
102
}
 70
     0
280
     1
281
     0
  0
BLOCK_RECORD
  5
7183F
330
716B0
100
AcDbSymbolTableRecord
100
AcDbBlockTableRecord
  2
ROUNDE_12
340
0
102
{BLKREFS
331
71560
102
}
 70
     0
280
     1
281
     0
  0
BLOCK_RECORD
  5
71842
330
716B0
100
AcDbSymbolTableRecord
100
AcDbBlockTableRecord
  2
ROUNDE_13
340
0
102
{BLKREFS
331
71561
102
}
 70
     0
280
     1
281
     0
  0
BLOCK_RECORD
  5
71845
330
716B0
100
AcDbSymbolTableRecord
100
AcDbBlockTableRecord
  2
ROUNDE_14
340
0
102
{BLKREFS
331
71562
102
}
 70
     0
280
     1
281
     0
  0
BLOCK_RECORD
  5
71848
330
716B0
100
AcDbSymbolTableRecord
100
AcDbBlockTableRecord
  2
SUBTRC_12
340
0
102
{BLKREFS
331
71563
102
}
 70
     0
280
     1
281
     0
  0
BLOCK_RECORD
  5
7184B
330
716B0
100
AcDbSymbolTableRecord
100
AcDbBlockTableRecord
  2
Feature Solid_39
340
0
102
{BLKREFS
331
71566
102
}
 70
     0
280
     1
281
     0
  0
BLOCK_RECORD
  5
7184E
330
716B0
100
AcDbSymbolTableRecord
100
AcDbBlockTableRecord
  2
SUBTRC_13
340
0
102
{BLKREFS
331
71567
102
}
 70
     0
280
     1
281
     0
  0
BLOCK_RECORD
  5
71851
330
716B0
100
AcDbSymbolTableRecord
100
AcDbBlockTableRecord
  2
Feature Solid_40
340
0
102
{BLKREFS
331
7156A
102
}
 70
     0
280
     1
281
     0
  0
BLOCK_RECORD
  5
71854
330
716B0
100
AcDbSymbolTableRecord
100
AcDbBlockTableRecord
  2
UNITE_14
340
0
102
{BLKREFS
331
7156B
102
}
 70
     0
280
     1
281
     0
  0
BLOCK_RECORD
  5
71857
330
716B0
100
AcDbSymbolTableRecord
100
AcDbBlockTableRecord
  2
Feature Solid_41
340
0
102
{BLKREFS
331
7156C
102
}
 70
     0
280
     1
281
     0
  0
BLOCK_RECORD
  5
7185A
330
716B0
100
AcDbSymbolTableRecord
100
AcDbBlockTableRecord
  2
SUBTRC_14
340
0
102
{BLKREFS
331
7156D
102
}
 70
     0
280
     1
281
     0
  0
BLOCK_RECORD
  5
7185D
330
716B0
100
AcDbSymbolTableRecord
100
AcDbBlockTableRecord
  2
Feature Solid_42
340
0
102
{BLKREFS
331
71570
102
}
 70
     0
280
     1
281
     0
  0
BLOCK_RECORD
  5
71860
330
716B0
100
AcDbSymbolTableRecord
100
AcDbBlockTableRecord
  2
ROUNDE_15
340
0
102
{BLKREFS
331
71571
102
}
 70
     0
280
     1
281
     0
  0
BLOCK_RECORD
  5
71863
330
716B0
100
AcDbSymbolTableRecord
100
AcDbBlockTableRecord
  2
SUBTRC_15
340
0
102
{BLKREFS
331
71572
102
}
 70
     0
280
     1
281
     0
  0
BLOCK_RECORD
  5
71866
330
716B0
100
AcDbSymbolTableRecord
100
AcDbBlockTableRecord
  2
Feature Solid_43
340
0
102
{BLKREFS
331
71573
102
}
 70
     0
280
     1
281
     0
  0
BLOCK_RECORD
  5
71869
330
716B0
100
AcDbSymbolTableRecord
100
AcDbBlockTableRecord
  2
CONE_4
340
0
102
{BLKREFS
331
71574
102
}
 70
     0
280
     1
281
     0
  0
BLOCK_RECORD
  5
7186C
330
716B0
100
AcDbSymbolTableRecord
100
AcDbBlockTableRecord
  2
Feature Solid_44
340
0
102
{BLKREFS
331
7157D
102
}
 70
     0
280
     1
281
     0
  0
BLOCK_RECORD
  5
7186F
330
716B0
100
AcDbSymbolTableRecord
100
AcDbBlockTableRecord
  2
UNITE_15
340
0
102
{BLKREFS
331
7157E
102
}
 70
     0
280
     1
281
     0
  0
BLOCK_RECORD
  5
71872
330
716B0
100
AcDbSymbolTableRecord
100
AcDbBlockTableRecord
  2
Feature Solid_45
340
0
102
{BLKREFS
331
7157F
102
}
 70
     0
280
     1
281
     0
  0
BLOCK_RECORD
  5
71875
330
716B0
100
AcDbSymbolTableRecord
100
AcDbBlockTableRecord
  2
SLAB_3
340
0
102
{BLKREFS
331
71580
102
}
 70
     0
280
     1
281
     0
  0
BLOCK_RECORD
  5
71878
330
716B0
100
AcDbSymbolTableRecord
100
AcDbBlockTableRecord
  2
Feature Solid_46
340
0
102
{BLKREFS
331
71583
102
}
 70
     0
280
     1
281
     0
  0
BLOCK_RECORD
  5
7187B
330
716B0
100
AcDbSymbolTableRecord
100
AcDbBlockTableRecord
  2
CONE_5
340
0
102
{BLKREFS
331
71584
102
}
 70
     0
280
     1
281
     0
  0
BLOCK_RECORD
  5
7187E
330
716B0
100
AcDbSymbolTableRecord
100
AcDbBlockTableRecord
  2
Feature Solid_47
340
0
102
{BLKREFS
331
7158B
102
}
 70
     0
280
     1
281
     0
  0
BLOCK_RECORD
  5
71881
330
716B0
100
AcDbSymbolTableRecord
100
AcDbBlockTableRecord
  2
DDREVL_5
340
0
102
{BLKREFS
331
7158C
102
}
 70
     0
280
     1
281
     0
  0
BLOCK_RECORD
  5
71884
330
716B0
100
AcDbSymbolTableRecord
100
AcDbBlockTableRecord
  2
Feature Solid_48
340
0
102
{BLKREFS
331
715C7
102
}
 70
     0
280
     1
281
     0
  0
BLOCK_RECORD
  5
71887
330
716B0
100
AcDbSymbolTableRecord
100
AcDbBlockTableRecord
  2
CONE_6
340
0
102
{BLKREFS
331
715C8
102
}
 70
     0
280
     1
281
     0
  0
BLOCK_RECORD
  5
7188A
330
716B0
100
AcDbSymbolTableRecord
100
AcDbBlockTableRecord
  2
Feature Solid_49
340
0
102
{BLKREFS
331
715D0
102
}
 70
     0
280
     1
281
     0
  0
BLOCK_RECORD
  5
7188D
330
716B0
100
AcDbSymbolTableRecord
100
AcDbBlockTableRecord
  2
SUBTRC_16
340
0
102
{BLKREFS
331
715D1
102
}
 70
     0
280
     1
281
     0
  0
BLOCK_RECORD
  5
71890
330
716B0
100
AcDbSymbolTableRecord
100
AcDbBlockTableRecord
  2
Feature Solid_50
340
0
102
{BLKREFS
331
715D4
102
}
 70
     0
280
     1
281
     0
  0
BLOCK_RECORD
  5
71893
330
716B0
100
AcDbSymbolTableRecord
100
AcDbBlockTableRecord
  2
UNITE_16
340
0
102
{BLKREFS
331
715D5
102
}
 70
     0
280
     1
281
     0
  0
BLOCK_RECORD
  5
71896
330
716B0
100
AcDbSymbolTableRecord
100
AcDbBlockTableRecord
  2
Feature Solid_51
340
0
102
{BLKREFS
331
715D6
102
}
 70
     0
280
     1
281
     0
  0
BLOCK_RECORD
  5
71899
330
716B0
100
AcDbSymbolTableRecord
100
AcDbBlockTableRecord
  2
DDPROJ
340
0
102
{BLKREFS
331
715D7
102
}
 70
     0
280
     1
281
     0
  0
BLOCK_RECORD
  5
7189C
330
716B0
100
AcDbSymbolTableRecord
100
AcDbBlockTableRecord
  2
Feature Solid_52
340
0
102
{BLKREFS
331
715DF
102
}
 70
     0
280
     1
281
     0
  0
BLOCK_RECORD
  5
7189F
330
716B0
100
AcDbSymbolTableRecord
100
AcDbBlockTableRecord
  2
TORUS
340
0
102
{BLKREFS
331
715E0
102
}
 70
     0
280
     1
281
     0
  0
BLOCK_RECORD
  5
718A2
330
716B0
100
AcDbSymbolTableRecord
100
AcDbBlockTableRecord
  2
Feature Solid_53
340
0
102
{BLKREFS
331
715E6
102
}
 70
     0
280
     1
281
     0
  0
BLOCK_RECORD
  5
718A5
330
716B0
100
AcDbSymbolTableRecord
100
AcDbBlockTableRecord
  2
DDPROJ_1
340
0
102
{BLKREFS
331
715E7
102
}
 70
     0
280
     1
281
     0
  0
BLOCK_RECORD
  5
718A8
330
716B0
100
AcDbSymbolTableRecord
100
AcDbBlockTableRecord
  2
Feature Solid_54
340
0
102
{BLKREFS
331
715ED
102
}
 70
     0
280
     1
281
     0
  0
BLOCK_RECORD
  5
718AB
330
716B0
100
AcDbSymbolTableRecord
100
AcDbBlockTableRecord
  2
TORUS_1
340
0
102
{BLKREFS
331
715EE
102
}
 70
     0
280
     1
281
     0
  0
BLOCK_RECORD
  5
718AE
330
716B0
100
AcDbSymbolTableRecord
100
AcDbBlockTableRecord
  2
Feature Solid_55
340
0
102
{BLKREFS
331
715F4
102
}
 70
     0
280
     1
281
     0
  0
BLOCK_RECORD
  5
718B1
330
716B0
100
AcDbSymbolTableRecord
100
AcDbBlockTableRecord
  2
DDPROJ_2
340
0
102
{BLKREFS
331
715F5
102
}
 70
     0
280
     1
281
     0
  0
BLOCK_RECORD
  5
718B4
330
716B0
100
AcDbSymbolTableRecord
100
AcDbBlockTableRecord
  2
Feature Solid_56
340
0
102
{BLKREFS
331
715FF
102
}
 70
     0
280
     1
281
     0
  0
BLOCK_RECORD
  5
718B7
330
716B0
100
AcDbSymbolTableRecord
100
AcDbBlockTableRecord
  2
SUBTRC_17
340
0
102
{BLKREFS
331
71600
102
}
 70
     0
280
     1
281
     0
  0
BLOCK_RECORD
  5
718BA
330
716B0
100
AcDbSymbolTableRecord
100
AcDbBlockTableRecord
  2
Feature Solid_57
340
0
102
{BLKREFS
331
71603
102
}
 70
     0
280
     1
281
     0
  0
BLOCK_RECORD
  5
718BD
330
716B0
100
AcDbSymbolTableRecord
100
AcDbBlockTableRecord
  2
UNITE_17
340
0
102
{BLKREFS
331
71604
102
}
 70
     0
280
     1
281
     0
  0
BLOCK_RECORD
  5
718C0
330
716B0
100
AcDbSymbolTableRecord
100
AcDbBlockTableRecord
  2
Feature Solid_58
340
0
102
{BLKREFS
331
71605
102
}
 70
     0
280
     1
281
     0
  0
BLOCK_RECORD
  5
718C3
330
716B0
100
AcDbSymbolTableRecord
100
AcDbBlockTableRecord
  2
DDPROJ_3
340
0
102
{BLKREFS
331
71606
102
}
 70
     0
280
     1
281
     0
  0
BLOCK_RECORD
  5
718C6
330
716B0
100
AcDbSymbolTableRecord
100
AcDbBlockTableRecord
  2
Feature Solid_59
340
0
102
{BLKREFS
331
7160E
102
}
 70
     0
280
     1
281
     0
  0
BLOCK_RECORD
  5
718C9
330
716B0
100
AcDbSymbolTableRecord
100
AcDbBlockTableRecord
  2
TORUS_2
340
0
102
{BLKREFS
331
7160F
102
}
 70
     0
280
     1
281
     0
  0
BLOCK_RECORD
  5
718CC
330
716B0
100
AcDbSymbolTableRecord
100
AcDbBlockTableRecord
  2
Feature Solid_60
340
0
102
{BLKREFS
331
71615
102
}
 70
     0
280
     1
281
     0
  0
BLOCK_RECORD
  5
718CF
330
716B0
100
AcDbSymbolTableRecord
100
AcDbBlockTableRecord
  2
DDPROJ_4
340
0
102
{BLKREFS
331
71616
102
}
 70
     0
280
     1
281
     0
  0
BLOCK_RECORD
  5
718D2
330
716B0
100
AcDbSymbolTableRecord
100
AcDbBlockTableRecord
  2
Feature Solid_61
340
0
102
{BLKREFS
331
7161C
102
}
 70
     0
280
     1
281
     0
  0
BLOCK_RECORD
  5
718D5
330
716B0
100
AcDbSymbolTableRecord
100
AcDbBlockTableRecord
  2
TORUS_3
340
0
102
{BLKREFS
331
7161D
102
}
 70
     0
280
     1
281
     0
  0
BLOCK_RECORD
  5
718D8
330
716B0
100
AcDbSymbolTableRecord
100
AcDbBlockTableRecord
  2
Feature Solid_62
340
0
102
{BLKREFS
331
71623
102
}
 70
     0
280
     1
281
     0
  0
BLOCK_RECORD
  5
718DB
330
716B0
100
AcDbSymbolTableRecord
100
AcDbBlockTableRecord
  2
DDPROJ_5
340
0
102
{BLKREFS
331
71624
102
}
 70
     0
280
     1
281
     0
  0
BLOCK_RECORD
  5
718DE
330
716B0
100
AcDbSymbolTableRecord
100
AcDbBlockTableRecord
  2
Feature Solid_63
340
0
102
{BLKREFS
331
7162E
102
}
 70
     0
280
     1
281
     0
  0
BLOCK_RECORD
  5
718E1
330
716B0
100
AcDbSymbolTableRecord
100
AcDbBlockTableRecord
  2
SUBTRC_18
340
0
102
{BLKREFS
331
7162F
102
}
 70
     0
280
     1
281
     0
  0
BLOCK_RECORD
  5
718E4
330
716B0
100
AcDbSymbolTableRecord
100
AcDbBlockTableRecord
  2
Feature Solid_64
340
0
102
{BLKREFS
331
71632
102
}
 70
     0
280
     1
281
     0
  0
BLOCK_RECORD
  5
718E7
330
716B0
100
AcDbSymbolTableRecord
100
AcDbBlockTableRecord
  2
UNITE_18
340
0
102
{BLKREFS
331
71633
102
}
 70
     0
280
     1
281
     0
  0
BLOCK_RECORD
  5
718EA
330
716B0
100
AcDbSymbolTableRecord
100
AcDbBlockTableRecord
  2
Feature Solid_65
340
0
102
{BLKREFS
331
71634
102
}
 70
     0
280
     1
281
     0
  0
BLOCK_RECORD
  5
718ED
330
716B0
100
AcDbSymbolTableRecord
100
AcDbBlockTableRecord
  2
DDPROJ_6
340
0
102
{BLKREFS
331
71635
102
}
 70
     0
280
     1
281
     0
  0
BLOCK_RECORD
  5
718F0
330
716B0
100
AcDbSymbolTableRecord
100
AcDbBlockTableRecord
  2
Feature Solid_66
340
0
102
{BLKREFS
331
7163D
102
}
 70
     0
280
     1
281
     0
  0
BLOCK_RECORD
  5
718F3
330
716B0
100
AcDbSymbolTableRecord
100
AcDbBlockTableRecord
  2
TORUS_4
340
0
102
{BLKREFS
331
7163E
102
}
 70
     0
280
     1
281
     0
  0
BLOCK_RECORD
  5
718F6
330
716B0
100
AcDbSymbolTableRecord
100
AcDbBlockTableRecord
  2
Feature Solid_67
340
0
102
{BLKREFS
331
71644
102
}
 70
     0
280
     1
281
     0
  0
BLOCK_RECORD
  5
718F9
330
716B0
100
AcDbSymbolTableRecord
100
AcDbBlockTableRecord
  2
DDPROJ_7
340
0
102
{BLKREFS
331
71645
102
}
 70
     0
280
     1
281
     0
  0
BLOCK_RECORD
  5
718FC
330
716B0
100
AcDbSymbolTableRecord
100
AcDbBlockTableRecord
  2
Feature Solid_68
340
0
102
{BLKREFS
331
7164B
102
}
 70
     0
280
     1
281
     0
  0
BLOCK_RECORD
  5
718FF
330
716B0
100
AcDbSymbolTableRecord
100
AcDbBlockTableRecord
  2
TORUS_5
340
0
102
{BLKREFS
331
7164C
102
}
 70
     0
280
     1
281
     0
  0
BLOCK_RECORD
  5
71902
330
716B0
100
AcDbSymbolTableRecord
100
AcDbBlockTableRecord
  2
Feature Solid_69
340
0
102
{BLKREFS
331
71652
102
}
 70
     0
280
     1
281
     0
  0
BLOCK_RECORD
  5
71905
330
716B0
100
AcDbSymbolTableRecord
100
AcDbBlockTableRecord
  2
DDPROJ_8
340
0
102
{BLKREFS
331
71653
102
}
 70
     0
280
     1
281
     0
  0
BLOCK_RECORD
  5
71908
330
716B0
100
AcDbSymbolTableRecord
100
AcDbBlockTableRecord
  2
Feature Solid_70
340
0
102
{BLKREFS
331
7165D
102
}
 70
     0
280
     1
281
     0
  0
BLOCK_RECORD
  5
7190B
330
716B0
100
AcDbSymbolTableRecord
100
AcDbBlockTableRecord
  2
SUBTRC_19
340
0
102
{BLKREFS
331
7165E
102
}
 70
     0
280
     1
281
     0
  0
BLOCK_RECORD
  5
7190E
330
716B0
100
AcDbSymbolTableRecord
100
AcDbBlockTableRecord
  2
Feature Solid_71
340
0
102
{BLKREFS
331
71661
102
}
 70
     0
280
     1
281
     0
  0
BLOCK_RECORD
  5
71911
330
716B0
100
AcDbSymbolTableRecord
100
AcDbBlockTableRecord
  2
UNITE_19
340
0
102
{BLKREFS
331
71662
102
}
 70
     0
280
     1
281
     0
  0
BLOCK_RECORD
  5
71914
330
716B0
100
AcDbSymbolTableRecord
100
AcDbBlockTableRecord
  2
Feature Solid_72
340
0
102
{BLKREFS
331
71663
102
}
 70
     0
280
     1
281
     0
  0
BLOCK_RECORD
  5
71917
330
716B0
100
AcDbSymbolTableRecord
100
AcDbBlockTableRecord
  2
DDPROJ_9
340
0
102
{BLKREFS
331
71664
102
}
 70
     0
280
     1
281
     0
  0
BLOCK_RECORD
  5
7191A
330
716B0
100
AcDbSymbolTableRecord
100
AcDbBlockTableRecord
  2
Feature Solid_73
340
0
102
{BLKREFS
331
7166C
102
}
 70
     0
280
     1
281
     0
  0
BLOCK_RECORD
  5
7191D
330
716B0
100
AcDbSymbolTableRecord
100
AcDbBlockTableRecord
  2
TORUS_6
340
0
102
{BLKREFS
331
7166D
102
}
 70
     0
280
     1
281
     0
  0
BLOCK_RECORD
  5
71920
330
716B0
100
AcDbSymbolTableRecord
100
AcDbBlockTableRecord
  2
Feature Solid_74
340
0
102
{BLKREFS
331
71673
102
}
 70
     0
280
     1
281
     0
  0
BLOCK_RECORD
  5
71923
330
716B0
100
AcDbSymbolTableRecord
100
AcDbBlockTableRecord
  2
DDPROJ_10
340
0
102
{BLKREFS
331
71674
102
}
 70
     0
280
     1
281
     0
  0
BLOCK_RECORD
  5
71926
330
716B0
100
AcDbSymbolTableRecord
100
AcDbBlockTableRecord
  2
Feature Solid_75
340
0
102
{BLKREFS
331
7167A
102
}
 70
     0
280
     1
281
     0
  0
BLOCK_RECORD
  5
71929
330
716B0
100
AcDbSymbolTableRecord
100
AcDbBlockTableRecord
  2
TORUS_7
340
0
102
{BLKREFS
331
7167B
102
}
 70
     0
280
     1
281
     0
  0
BLOCK_RECORD
  5
7192C
330
716B0
100
AcDbSymbolTableRecord
100
AcDbBlockTableRecord
  2
Feature Solid_76
340
0
102
{BLKREFS
331
71681
102
}
 70
     0
280
     1
281
     0
  0
BLOCK_RECORD
  5
7192F
330
716B0
100
AcDbSymbolTableRecord
100
AcDbBlockTableRecord
  2
DDPROJ_11
340
0
102
{BLKREFS
331
71682
102
}
 70
     0
280
     1
281
     0
  0
ENDTAB
  0
ENDSEC
  0
SECTION
  2
BLOCKS
  0
BLOCK
  5
716B2
330
716B1
100
AcDbEntity
  8
0
100
AcDbBlockBegin
  2
*Model_Space
 70
     0
 10
0.0
 20
0.0
 30
0.0
  3
*Model_Space
  1

  0
ENDBLK
  5
716C3
330
716B1
100
AcDbEntity
  8
0
100
AcDbBlockEnd
  0
BLOCK
  5
716C9
330
716C8
100
AcDbEntity
 67
     1
  8
0
100
AcDbBlockBegin
  2
*Paper_Space
 70
     0
 10
0.0
 20
0.0
 30
0.0
  3
*Paper_Space
  1

  0
ENDBLK
  5
716CA
330
716C8
100
AcDbEntity
 67
     1
  8
0
100
AcDbBlockEnd
  0
BLOCK
  5
71725
330
71698
100
AcDbEntity
  8
0
100
AcDbBlockBegin
  2
*U0
 70
     1
 10
0.0
 20
0.0
 30
0.0
  3
*U0
  1

  0
LWPOLYLINE
  5
71699
330
71698
100
AcDbEntity
  8
0
100
AcDbPolyline
 90
        4
 70
   129
 43
0.0
 10
-0.111569
 20
-0.055784
 10
0.111569
 20
-0.055784
 10
0.111569
 20
0.167353
 10
-0.111569
 20
-0.055784
  0
ENDBLK
  5
71726
330
71698
100
AcDbEntity
  8
0
100
AcDbBlockEnd
  0
BLOCK
  5
71727
330
7169A
100
AcDbEntity
  8
0
100
AcDbBlockBegin
  2
*U1
 70
     1
 10
0.0
 20
0.0
 30
0.0
  3
*U1
  1

  0
LWPOLYLINE
  5
7169B
330
7169A
100
AcDbEntity
  8
0
100
AcDbPolyline
 90
        5
 70
   129
 43
0.0
 10
-0.105116
 20
0.16
 10
-0.105116
 20
-0.16
 10
0.004884
 20
-0.16
 42
1.0
 10
0.004884
 20
0.16
 10
-0.105116
 20
0.16
  0
ENDBLK
  5
71728
330
7169A
100
AcDbEntity
  8
0
100
AcDbBlockEnd
  0
BLOCK
  5
71729
330
716A0
100
AcDbEntity
  8
0
100
AcDbBlockBegin
  2
*U2
 70
     1
 10
0.0
 20
0.0
 30
0.0
  3
*U2
  1

  0
3DSOLID
  5
716A1
330
716A0
100
AcDbEntity
  8
0
100
AcDbModelerGeometry
290
     1
  2
{F3726C24-EC7A-4267-B6BF-9233166CB84F}
100
AcDb3dSolid
350
0
  0
ENDBLK
  5
7172A
330
716A0
100
AcDbEntity
  8
0
100
AcDbBlockEnd
  0
BLOCK
  5
7172B
330
716A9
100
AcDbEntity
  8
0
100
AcDbBlockBegin
  2
*U3
 70
     1
 10
0.0
 20
0.0
 30
0.0
  3
*U3
  1

  0
CIRCLE
  5
716AA
330
716A9
100
AcDbEntity
  8
0
  6
Continuous
 62
     7
370
    13
100
AcDbCircle
 10
0.0
 20
0.0
 30
0.0
 40
0.1345000000000007
  0
ENDBLK
  5
7172C
330
716A9
100
AcDbEntity
  8
0
100
AcDbBlockEnd
  0
BLOCK
  5
7172D
330
716AB
100
AcDbEntity
  8
0
100
AcDbBlockBegin
  2
*U4
 70
     1
 10
0.0
 20
0.0
 30
0.0
  3
*U4
  1

  0
CIRCLE
  5
716AC
330
716AB
100
AcDbEntity
  8
0
  6
Continuous
 62
     7
370
    13
100
AcDbCircle
 10
0.0
 20
0.0
 30
0.0
 40
0.1345
  0
ENDBLK
  5
7172E
330
716AB
100
AcDbEntity
  8
0
100
AcDbBlockEnd
  0
BLOCK
  5
7172F
330
716AD
100
AcDbEntity
  8
0
100
AcDbBlockBegin
  2
*U5
 70
     1
 10
0.0
 20
0.0
 30
0.0
  3
*U5
  1

  0
CIRCLE
  5
716AE
330
716AD
100
AcDbEntity
  8
0
  6
Continuous
 62
   118
370
    13
100
AcDbCircle
 10
0.0
 20
0.0
 30
0.0
 40
0.1345000000000006
  0
ENDBLK
  5
71730
330
716AD
100
AcDbEntity
  8
0
100
AcDbBlockEnd
  0
BLOCK
  5
71732
330
71731
100
AcDbEntity
  8
0
 62
    98
370
     0
100
AcDbBlockBegin
  2
A3010S
 70
     0
 10
0.0
 20
0.0
 30
0.0
  3
A3010S
  1

  0
INSERT
  5
71449
330
71731
100
AcDbEntity
  8
Level 26
 62
     7
370
    13
100
AcDbBlockReference
  2
Feature Solid
 10
0.025687
 20
7.463458
 30
0.0
 50
270.0
210
0.0
220
0.0
230
-1.0
  0
INSERT
  5
71508
330
71731
100
AcDbEntity
  8
Level 26
 62
     7
370
    13
100
AcDbBlockReference
  2
Feature Solid_24
 10
-0.025687
 20
1292.536542
 30
0.0
 50
90.0
  0
INSERT
  5
715C7
330
71731
100
AcDbEntity
  8
Level 25
  6
Continuous
 62
   253
370
    13
100
AcDbBlockReference
  2
Feature Solid_48
 10
-0.0005
 20
650.0
 30
0.0
  0
INSERT
  5
715D0
330
71731
100
AcDbEntity
  8
Level 25
  6
Continuous
 62
   253
370
    13
100
AcDbBlockReference
  2
Feature Solid_49
 10
-0.018575
 20
933.011396
 30
0.0
  0
INSERT
  5
715FF
330
71731
100
AcDbEntity
  8
Level 25
  6
Continuous
 62
   253
370
    13
100
AcDbBlockReference
  2
Feature Solid_56
 10
-0.018575
 20
366.961396
 30
0.0
  0
INSERT
  5
7162E
330
71731
100
AcDbEntity
  8
Level 25
  6
Continuous
 62
   253
370
    13
100
AcDbBlockReference
  2
Feature Solid_63
 10
-0.018575
 20
933.011396
 30
0.0
  0
INSERT
  5
7165D
330
71731
100
AcDbEntity
  8
Level 25
  6
Continuous
 62
   253
370
    13
100
AcDbBlockReference
  2
Feature Solid_70
 10
-0.018575
 20
366.961396
 30
0.0
  0
ENDBLK
  5
71733
330
71731
100
AcDbEntity
  8
0
 62
    98
370
     0
100
AcDbBlockEnd
  0
BLOCK
  5
71735
330
71734
100
AcDbEntity
  8
0
 62
    98
370
     0
100
AcDbBlockBegin
  2
Feature Solid
 70
     0
 10
0.0
 20
0.0
 30
0.0
  3
Feature Solid
  1

  0
INSERT
  5
7144A
330
71734
100
AcDbEntity
  8
Level 26
 62
     7
370
    13
100
AcDbBlockReference
  2
UNITE
 10
-1248.75
 20
-454.65
 30
0.0
  0
ENDBLK
  5
71736
330
71734
100
AcDbEntity
  8
0
 62
    98
370
     0
100
AcDbBlockEnd
  0
BLOCK
  5
71738
330
71737
100
AcDbEntity
  8
0
 62
    98
370
     0
100
AcDbBlockBegin
  2
UNITE
 70
     0
 10
0.0
 20
0.0
 30
0.0
  3
UNITE
  1

  0
INSERT
  5
7144B
330
71737
100
AcDbEntity
  8
Level 26
 62
     7
370
    13
100
AcDbBlockReference
  2
Feature Solid_1
 10
0.0
 20
0.0
 30
0.0
  0
INSERT
  5
71496
330
71737
100
AcDbEntity
  8
Level 26
 62
     7
370
    13
100
AcDbBlockReference
  2
Feature Solid_12
 10
0.0
 20
0.0
 30
0.0
  0
ENDBLK
  5
71739
330
71737
100
AcDbEntity
  8
0
 62
    98
370
     0
100
AcDbBlockEnd
  0
BLOCK
  5
7173B
330
7173A
100
AcDbEntity
  8
0
 62
    98
370
     0
100
AcDbBlockBegin
  2
Feature Solid_1
 70
     0
 10
0.0
 20
0.0
 30
0.0
  3
Feature Solid_1
  1

  0
INSERT
  5
7144C
330
7173A
100
AcDbEntity
  8
Level 26
 62
     7
370
    13
100
AcDbBlockReference
  2
UNITE_1
 10
745.63931
 20
0.0
 30
0.0
  0
ENDBLK
  5
7173C
330
7173A
100
AcDbEntity
  8
0
 62
    98
370
     0
100
AcDbBlockEnd
  0
BLOCK
  5
7173E
330
7173D
100
AcDbEntity
  8
0
 62
    98
370
     0
100
AcDbBlockBegin
  2
UNITE_1
 70
     0
 10
0.0
 20
0.0
 30
0.0
  3
UNITE_1
  1

  0
INSERT
  5
7144D
330
7173D
100
AcDbEntity
  8
Level 26
 62
     7
370
    13
100
AcDbBlockReference
  2
Feature Solid_2
 10
0.0
 20
0.0
 30
0.0
  0
ENDBLK
  5
7173F
330
7173D
100
AcDbEntity
  8
0
 62
    98
370
     0
100
AcDbBlockEnd
  0
BLOCK
  5
71741
330
71740
100
AcDbEntity
  8
0
 62
    98
370
     0
100
AcDbBlockBegin
  2
Feature Solid_2
 70
     0
 10
0.0
 20
0.0
 30
0.0
  3
Feature Solid_2
  1

  0
INSERT
  5
7144E
330
71740
100
AcDbEntity
  8
Level 26
 62
     7
370
    13
100
AcDbBlockReference
  2
UNITE_2
 10
0.0
 20
0.0
 30
0.0
  0
ENDBLK
  5
71742
330
71740
100
AcDbEntity
  8
0
 62
    98
370
     0
100
AcDbBlockEnd
  0
BLOCK
  5
71744
330
71743
100
AcDbEntity
  8
0
 62
    98
370
     0
100
AcDbBlockBegin
  2
UNITE_2
 70
     0
 10
0.0
 20
0.0
 30
0.0
  3
UNITE_2
  1

  0
INSERT
  5
71451
330
71743
100
AcDbEntity
  8
Level 26
 62
     7
370
    13
100
AcDbBlockReference
  2
Feature Solid_3
 10
0.0
 20
0.0
 30
0.0
  0
ENDBLK
  5
71745
330
71743
100
AcDbEntity
  8
0
 62
    98
370
     0
100
AcDbBlockEnd
  0
BLOCK
  5
71747
330
71746
100
AcDbEntity
  8
0
 62
    98
370
     0
100
AcDbBlockBegin
  2
Feature Solid_3
 70
     0
 10
0.0
 20
0.0
 30
0.0
  3
Feature Solid_3
  1

  0
INSERT
  5
71452
330
71746
100
AcDbEntity
  8
Level 26
 62
     7
370
    13
100
AcDbBlockReference
  2
ROUNDE
 10
0.0
 20
0.0
 30
0.0
  0
ENDBLK
  5
71748
330
71746
100
AcDbEntity
  8
0
 62
    98
370
     0
100
AcDbBlockEnd
  0
BLOCK
  5
7174A
330
71749
100
AcDbEntity
  8
0
 62
    98
370
     0
100
AcDbBlockBegin
  2
ROUNDE
 70
     0
 10
0.0
 20
0.0
 30
0.0
  3
ROUNDE
  1

  0
INSERT
  5
71453
330
71749
100
AcDbEntity
  8
Level 26
 62
     7
370
    13
100
AcDbBlockReference
  2
ROUNDE_1
 10
0.0
 20
0.0
 30
0.0
  0
SPLINE
  5
7148B
330
71749
100
AcDbEntity
  8
Level 26
 62
     7
370
    13
100
AcDbSpline
210
0.0
220
0.0
230
1.0
 70
     8
 71
     3
 72
    24
 73
    20
 74
     0
 42
0.000000001
 43
0.0000000001
 40
0.0
 40
0.0
 40
0.0
 40
0.0
 40
0.125
 40
0.125
 40
0.25
 40
0.25
 40
0.3749999999999999
 40
0.3749999999999999
 40
0.5
 40
0.5
 40
0.625
 40
0.625
 40
0.7499999999999999
 40
0.7499999999999999
 40
0.8749999999999998
 40
0.8749999999999998
 40
0.9374999999999998
 40
0.9374999999999998
 40
1.0
 40
1.0
 40
1.0
 40
1.0
 10
456.6829942165715
 20
423.1243130449688
 30
0.0
 10
457.2080727490936
 20
423.1243130449688
 30
0.0
 10
457.7503022684021
 20
422.9598232381081
 30
0.0
 10
458.8917351729874
 20
422.3156683920733
 30
0.0
 10
459.4959298922754
 20
421.8302430823518
 30
0.0
 10
460.7587744140252
 20
420.5542478059714
 30
0.0
 10
461.4091671038157
 20
419.7741014337839
 30
0.0
 10
462.7674968683971
 20
417.9446469277141
 30
0.0
 10
463.4827609682344
 20
416.8820458409522
 30
0.0
 10
464.9567423978577
 20
414.5642071482611
 30
0.0
 10
465.7151753534543
 20
413.3098279182349
 30
0.0
 10
467.3302737274402
 20
410.6444333149865
 30
0.0
 10
468.191019131353
 20
409.2226473879218
 30
0.0
 10
470.0656896204398
 20
406.3901442892029
 30
0.0
 10
471.0906243135523
 20
404.9510487405322
 30
0.0
 10
472.9175112310038
 20
402.97458543751
 30
0.0
 10
473.5691899666562
 20
402.3557925788423
 30
0.0
 10
475.0015484643029
 20
401.2481628139093
 30
0.0
 10
475.7866584879113
 20
400.7612102898133
 30
0.0
 10
476.6218540989038
 20
400.3809312772859
 30
0.0
  0
LINE
  5
7148E
330
71749
100
AcDbEntity
  8
Level 26
 62
     7
370
    13
100
AcDbLine
 10
456.682994
 20
423.124313
 30
0.0
 11
456.014547
 21
423.124313
 31
0.0
  0
SPLINE
  5
7148F
330
71749
100
AcDbEntity
  8
Level 26
 62
     7
370
    13
100
AcDbSpline
210
0.0
220
0.0
230
1.0
 70
     8
 71
     3
 72
    22
 73
    18
 74
     0
 42
0.000000001
 43
0.0000000001
 40
0.0
 40
0.0
 40
0.0
 40
0.0
 40
0.125
 40
0.125
 40
0.25
 40
0.25
 40
0.375
 40
0.375
 40
0.5
 40
0.5
 40
0.625
 40
0.625
 40
0.75
 40
0.75
 40
0.875
 40
0.875
 40
1.0
 40
1.0
 40
1.0
 40
1.0
 10
489.8565045954743
 20
408.021960304115
 30
0.0
 10
487.9717771789803
 20
408.859838799603
 30
0.0
 10
486.1646655330257
 20
409.799786021229
 30
0.0
 10
482.7039269595709
 20
411.8655497180671
 30
0.0
 10
481.0313349528461
 20
413.007642542198
 30
0.0
 10
477.9704745876443
 20
415.3594999063275
 30
0.0
 10
476.5744636353323
 20
416.5700433971137
 30
0.0
 10
474.0286847441037
 20
419.0078127349875
 30
0.0
 10
472.8903689732738
 20
420.2269506520479
 30
0.0
 10
470.9356939692403
 20
422.4989538075515
 30
0.0
 10
470.0952458563827
 20
423.578142215002
 30
0.0
 10
468.6960304522643
 20
425.4930666832474
 30
0.0
 10
468.1393285556463
 20
426.3232192647828
 30
0.0
 10
467.2557146043338
 20
427.6951626717932
 30
0.0
 10
466.9328674820302
 20
428.2309583048932
 30
0.0
 10
466.5112609356921
 20
428.9410008785798
 30
0.0
 10
466.4068517018342
 20
429.1243130449429
 30
0.0
 10
466.4068517018342
 20
429.1243130449429
 30
0.0
  0
LINE
  5
71492
330
71749
100
AcDbEntity
  8
Level 26
 62
     7
370
    13
100
AcDbLine
 10
456.014547
 20
423.124313
 30
0.0
 11
466.406852
 21
429.124313
 31
0.0
  0
LINE
  5
71493
330
71749
100
AcDbEntity
  8
Level 26
 62
     7
370
    13
100
AcDbLine
 10
476.621854
 20
400.380931
 30
0.0
 11
489.856505
 21
408.02196
 31
0.0
  0
ENDBLK
  5
7174B
330
71749
100
AcDbEntity
  8
0
 62
    98
370
     0
100
AcDbBlockEnd
  0
BLOCK
  5
7174D
330
7174C
100
AcDbEntity
  8
0
 62
    98
370
     0
100
AcDbBlockBegin
  2
ROUNDE_1
 70
     0
 10
0.0
 20
0.0
 30
0.0
  3
ROUNDE_1
  1

  0
INSERT
  5
71454
330
7174C
100
AcDbEntity
  8
Level 26
 62
     7
370
    13
100
AcDbBlockReference
  2
ROUNDE_2
 10
0.0
 20
0.0
 30
0.0
  0
SPLINE
  5
71479
330
7174C
100
AcDbEntity
  8
Level 26
 62
     7
370
    13
100
AcDbSpline
210
0.0
220
0.0
230
1.0
 70
     8
 71
     3
 72
    10
 73
     6
 74
     0
 42
0.000000001
 43
0.0000000001
 40
0.0
 40
0.0
 40
0.0
 40
0.0
 40
0.5
 40
0.5
 40
1.0
 40
1.0
 40
1.0
 40
1.0
 10
502.7160304719875
 20
393.1243130449689
 30
0.0
 10
498.2114556221076
 20
393.5977371803151
 30
0.0
 10
493.7289634592881
 20
394.4547642636226
 30
0.0
 10
485.0015468048834
 20
396.9113626663311
 30
0.0
 10
480.7433169348839
 20
398.5043579370863
 30
0.0
 10
476.6218540988992
 20
400.3809312772859
 30
0.0
  0
SPLINE
  5
7147C
330
7174C
100
AcDbEntity
  8
Level 26
 62
     7
370
    13
100
AcDbSpline
210
0.0
220
0.0
230
1.0
 70
    24
 71
     3
 72
    16
 73
    12
 74
     0
 42
0.000000001
 43
0.0000000001
 40
0.0
 40
0.0
 40
0.0
 40
0.0
 40
0.2499999999999999
 40
0.2499999999999999
 40
0.3749999999999998
 40
0.3749999999999998
 40
0.4999999999999999
 40
0.4999999999999999
 40
0.75
 40
0.75
 40
1.0
 40
1.0
 40
1.0
 40
1.0
 10
456.6829942165715
 20
423.1243130449688
 30
0.0
 10
452.965969727673
 20
423.1243130449688
 30
0.0
 10
449.358522316669
 20
423.1243130449688
 30
0.0
 10
444.2565151951815
 20
423.1243130449688
 30
0.0
 10
442.6028904836382
 20
423.1243130449688
 30
0.0
 10
439.4002785285421
 20
423.1243130449688
 30
0.0
 10
437.8441332426377
 20
423.1243130449688
 30
0.0
 10
433.4262667612185
 20
423.1243130449688
 30
0.0
 10
430.7942900366964
 20
423.1243130449688
 30
0.0
 10
426.4705003483006
 20
423.1243130449688
 30
0.0
 10
424.7345310202524
 20
423.1243130449688
 30
0.0
 10
423.5608713618335
 20
423.1243130449688
 30
0.0
  0
SPLINE
  5
7147F
330
7174C
100
AcDbEntity
  8
Level 26
 62
     7
370
    13
100
AcDbSpline
210
0.0
220
0.0
230
1.0
 70
     8
 71
     3
 72
    18
 73
    14
 74
     0
 42
0.000000001
 43
0.0000000001
 40
0.0
 40
0.0
 40
0.0
 40
0.0
 40
0.2500000000000014
 40
0.2500000000000014
 40
0.5000000000000029
 40
0.5000000000000029
 40
0.6250000000000022
 40
0.6250000000000022
 40
0.7500000000000015
 40
0.7500000000000015
 40
0.8750000000000007
 40
0.8750000000000007
 40
1.0
 40
1.0
 40
1.0
 40
1.0
 10
423.5608713618335
 20
423.1243130449688
 30
0.0
 10
423.914460954944
 20
423.1243130449688
 30
0.0
 10
424.3980527694485
 20
423.12697633373
 30
0.0
 10
425.4779308582367
 20
423.2111255445443
 30
0.0
 10
426.074076122405
 20
423.2873640732354
 30
0.0
 10
426.8755552375512
 20
423.6686182668954
 30
0.0
 10
427.1313786393655
 20
423.844350969076
 30
0.0
 10
427.5744645896791
 20
424.3490016252398
 30
0.0
 10
427.7682477186811
 20
424.6798281128481
 30
0.0
 10
427.9670164336664
 20
425.5598100078628
 30
0.0
 10
427.9479865616033
 20
426.1263917067313
 30
0.0
 10
427.5180124906245
 20
427.2256437047198
 30
0.0
 10
427.138222313892
 20
427.7192244501224
 30
0.0
 10
426.7357752694245
 20
428.1243130449688
 30
0.0
  0
SPLINE
  5
71482
330
7174C
100
AcDbEntity
  8
Level 26
 62
     7
370
    13
100
AcDbSpline
210
0.0
220
0.0
230
1.0
 70
     8
 71
     3
 72
    18
 73
    14
 74
     0
 42
0.000000001
 43
0.0000000001
 40
0.0
 40
0.0
 40
0.0
 40
0.0
 40
0.2500000000000001
 40
0.2500000000000001
 40
0.5000000000000001
 40
0.5000000000000001
 40
0.6250000000000001
 40
0.6250000000000001
 40
0.7500000000000002
 40
0.7500000000000002
 40
0.8750000000000001
 40
0.8750000000000001
 40
1.0
 40
1.0
 40
1.0
 40
1.0
 10
437.957327875454
 20
434.7159812381451
 30
0.0
 10
438.8086639282992
 20
432.17487240966
 30
0.0
 10
439.6436503257965
 20
429.6093774769192
 30
0.0
 10
441.2299719601691
 20
424.5200006965023
 30
0.0
 10
441.9808878448917
 20
421.9865482909717
 30
0.0
 10
443.0617130770627
 20
418.372902211025
 30
0.0
 10
443.4113299915147
 20
417.2139356377274
 30
0.0
 10
444.1070001432802
 20
415.0446245716288
 30
0.0
 10
444.4590055944015
 20
414.0168533700034
 30
0.0
 10
445.1763757320809
 20
412.2524799226148
 30
0.0
 10
445.5436986110414
 20
411.5088923829348
 30
0.0
 10
446.3474171248064
 20
410.4122476450575
 30
0.0
 10
446.7621684324014
 20
410.0936167032496
 30
0.0
 10
447.2888478209082
 20
409.8949786311796
 30
0.0
  0
SPLINE
  5
71485
330
7174C
100
AcDbEntity
  8
Level 26
 62
     7
370
    13
100
AcDbSpline
210
0.0
220
0.0
230
1.0
 70
     8
 71
     3
 72
    20
 73
    16
 74
     0
 42
0.000000001
 43
0.0000000001
 40
0.0
 40
0.0
 40
0.0
 40
0.0
 40
0.0624999999999998
 40
0.0624999999999998
 40
0.1249999999999996
 40
0.1249999999999996
 40
0.2499999999999996
 40
0.2499999999999996
 40
0.3749999999999997
 40
0.3749999999999997
 40
0.4999999999999999
 40
0.4999999999999999
 40
0.75
 40
0.75
 40
1.0
 40
1.0
 40
1.0
 40
1.0
 10
447.2888478209082
 20
409.8949786311796
 30
0.0
 10
447.8005027065295
 20
409.7020070772096
 30
0.0
 10
448.518576616857
 20
409.4293005605527
 30
0.0
 10
450.1613125157039
 20
408.7964160625301
 30
0.0
 10
451.100911553332
 20
408.4305234041807
 30
0.0
 10
454.1342073460598
 20
407.2356252777872
 30
0.0
 10
456.3823413292886
 20
406.3318616995511
 30
0.0
 10
460.9535678625209
 20
404.4946355635897
 30
0.0
 10
463.3210160971962
 20
403.5448065614027
 30
0.0
 10
468.0742445815438
 20
401.6964419574474
 30
0.0
 10
470.4637302419576
 20
400.7966453446374
 30
0.0
 10
477.680521599166
 20
398.2422376221043
 30
0.0
 10
482.5569246413898
 20
396.7372545389831
 30
0.0
 10
492.4912741835274
 20
394.3936466169134
 30
0.0
 10
497.5490352956433
 20
393.5524528358578
 30
0.0
 10
502.7160304719902
 20
393.1243130449689
 30
0.0
  0
ELLIPSE
  5
71488
330
7174C
100
AcDbEntity
  8
Level 26
 62
     7
370
    13
100
AcDbEllipse
 10
423.560871
 20
393.124313
 30
0.0
 11
0.0
 21
30.00000000000002
 31
0.0
210
0.0
220
0.0
230
-1.0
 40
0.9539045718304091
 41
0.0000000000000089
 42
0.9775902890469847
  0
ELLIPSE
  5
71489
330
7174C
100
AcDbEntity
  8
Level 26
 62
     7
370
    13
100
AcDbEllipse
 10
413.913828
 20
428.124313
 30
0.0
 11
27.77666546375666
 21
11.33388087614078
 31
0.0
210
0.0
220
0.0
230
1.0
 40
0.1758217249114041
 41
-1.16394104508646
 42
-0.6004811796356302
  0
ELLIPSE
  5
7148A
330
7174C
100
AcDbEntity
  8
Level 26
 62
     7
370
    13
100
AcDbEllipse
 10
419.174597
 20
402.344171
 30
0.0
 11
29.86596683574143
 21
2.832670995084699
 31
0.0
210
0.0
220
0.0
230
0.9999999999999998
 40
0.7542389838019889
 41
0.5404702887457092
 42
1.214093718638255
  0
ENDBLK
  5
7174E
330
7174C
100
AcDbEntity
  8
0
 62
    98
370
     0
100
AcDbBlockEnd
  0
BLOCK
  5
71750
330
7174F
100
AcDbEntity
  8
0
 62
    98
370
     0
100
AcDbBlockBegin
  2
ROUNDE_2
 70
     0
 10
0.0
 20
0.0
 30
0.0
  3
ROUNDE_2
  1

  0
INSERT
  5
71455
330
7174F
100
AcDbEntity
  8
Level 26
 62
     7
370
    13
100
AcDbBlockReference
  2
SUBTRC
 10
0.0
 20
0.0
 30
0.0
  0
POINT
  5
71473
330
7174F
100
AcDbEntity
  8
Level 26
 62
     7
370
    13
100
AcDbPoint
 10
417.574147
 20
428.124313
 30
0.0
  0
LINE
  5
71474
330
7174F
100
AcDbEntity
  8
Level 26
 62
     7
370
    13
100
AcDbLine
 10
426.735775
 20
428.124313
 30
0.0
 11
417.574147
 21
428.124313
 31
0.0
  0
LINE
  5
71475
330
7174F
100
AcDbEntity
  8
Level 26
 62
     7
370
    13
100
AcDbLine
 10
423.560871
 20
423.124313
 30
0.0
 11
422.574147
 21
423.124313
 31
0.0
  0
POINT
  5
71476
330
7174F
100
AcDbEntity
  8
Level 26
 62
     7
370
    13
100
AcDbPoint
 10
422.574147
 20
423.124313
 30
0.0
  0
ARC
  5
71477
330
7174F
100
AcDbEntity
  8
Level 26
 62
     7
370
    13
100
AcDbCircle
 10
422.574147
 20
428.124313
 30
0.0
 40
5.0
100
AcDbArc
 50
180.0
 51
270.0
  0
ARC
  5
71478
330
7174F
100
AcDbEntity
  8
Level 26
 62
     7
370
    13
100
AcDbCircle
 10
422.574147
 20
428.124313
 30
0.0
 40
5.000000000000001
100
AcDbArc
 50
180.0
 51
270.0
  0
ENDBLK
  5
71751
330
7174F
100
AcDbEntity
  8
0
 62
    98
370
     0
100
AcDbBlockEnd
  0
BLOCK
  5
71753
330
71752
100
AcDbEntity
  8
0
 62
    98
370
     0
100
AcDbBlockBegin
  2
SUBTRC
 70
     0
 10
0.0
 20
0.0
 30
0.0
  3
SUBTRC
  1

  0
INSERT
  5
71458
330
71752
100
AcDbEntity
  8
Level 26
 62
     7
370
    13
100
AcDbBlockReference
  2
Feature Solid_4
 10
0.0
 20
0.0
 30
0.0
  0
ENDBLK
  5
71754
330
71752
100
AcDbEntity
  8
0
 62
    98
370
     0
100
AcDbBlockEnd
  0
BLOCK
  5
71756
330
71755
100
AcDbEntity
  8
0
 62
    98
370
     0
100
AcDbBlockBegin
  2
Feature Solid_4
 70
     0
 10
0.0
 20
0.0
 30
0.0
  3
Feature Solid_4
  1

  0
INSERT
  5
71459
330
71755
100
AcDbEntity
  8
Level 26
 62
     7
370
    13
100
AcDbBlockReference
  2
SUBTRC_1
 10
0.0
 20
0.0
 30
0.0
  0
ENDBLK
  5
71757
330
71755
100
AcDbEntity
  8
0
 62
    98
370
     0
100
AcDbBlockEnd
  0
BLOCK
  5
71759
330
71758
100
AcDbEntity
  8
0
 62
    98
370
     0
100
AcDbBlockBegin
  2
SUBTRC_1
 70
     0
 10
0.0
 20
0.0
 30
0.0
  3
SUBTRC_1
  1

  0
INSERT
  5
7145C
330
71758
100
AcDbEntity
  8
Level 26
 62
     7
370
    13
100
AcDbBlockReference
  2
Feature Solid_5
 10
0.0
 20
0.0
 30
0.0
  0
ENDBLK
  5
7175A
330
71758
100
AcDbEntity
  8
0
 62
    98
370
     0
100
AcDbBlockEnd
  0
BLOCK
  5
7175C
330
7175B
100
AcDbEntity
  8
0
 62
    98
370
     0
100
AcDbBlockBegin
  2
Feature Solid_5
 70
     0
 10
0.0
 20
0.0
 30
0.0
  3
Feature Solid_5
  1

  0
INSERT
  5
7145D
330
7175B
100
AcDbEntity
  8
Level 26
 62
     7
370
    13
100
AcDbBlockReference
  2
UNITE_3
 10
0.0
 20
0.0
 30
0.0
  0
ENDBLK
  5
7175D
330
7175B
100
AcDbEntity
  8
0
 62
    98
370
     0
100
AcDbBlockEnd
  0
BLOCK
  5
7175F
330
7175E
100
AcDbEntity
  8
0
 62
    98
370
     0
100
AcDbBlockBegin
  2
UNITE_3
 70
     0
 10
0.0
 20
0.0
 30
0.0
  3
UNITE_3
  1

  0
INSERT
  5
7145E
330
7175E
100
AcDbEntity
  8
Level 26
 62
     7
370
    13
100
AcDbBlockReference
  2
Feature Solid_6
 10
0.0
 20
0.0
 30
0.0
  0
INSERT
  5
71470
330
7175E
100
AcDbEntity
  8
Level 26
 62
     7
370
    13
100
AcDbBlockReference
  2
Feature Solid_11
 10
0.0
 20
0.0
 30
0.0
  0
ENDBLK
  5
71760
330
7175E
100
AcDbEntity
  8
0
 62
    98
370
     0
100
AcDbBlockEnd
  0
BLOCK
  5
71762
330
71761
100
AcDbEntity
  8
0
 62
    98
370
     0
100
AcDbBlockBegin
  2
Feature Solid_6
 70
     0
 10
0.0
 20
0.0
 30
0.0
  3
Feature Solid_6
  1

  0
INSERT
  5
7145F
330
71761
100
AcDbEntity
  8
Level 26
 62
     7
370
    13
100
AcDbBlockReference
  2
SUBTRC_2
 10
0.0
 20
0.0
 30
0.0
  0
ENDBLK
  5
71763
330
71761
100
AcDbEntity
  8
0
 62
    98
370
     0
100
AcDbBlockEnd
  0
BLOCK
  5
71765
330
71764
100
AcDbEntity
  8
0
 62
    98
370
     0
100
AcDbBlockBegin
  2
SUBTRC_2
 70
     0
 10
0.0
 20
0.0
 30
0.0
  3
SUBTRC_2
  1

  0
INSERT
  5
71462
330
71764
100
AcDbEntity
  8
Level 26
 62
     7
370
    13
100
AcDbBlockReference
  2
Feature Solid_7
 10
0.0
 20
0.0
 30
0.0
  0
ENDBLK
  5
71766
330
71764
100
AcDbEntity
  8
0
 62
    98
370
     0
100
AcDbBlockEnd
  0
BLOCK
  5
71768
330
71767
100
AcDbEntity
  8
0
 62
    98
370
     0
100
AcDbBlockBegin
  2
Feature Solid_7
 70
     0
 10
0.0
 20
0.0
 30
0.0
  3
Feature Solid_7
  1

  0
INSERT
  5
71463
330
71767
100
AcDbEntity
  8
Level 26
 62
     7
370
    13
100
AcDbBlockReference
  2
ROUNDE_3
 10
0.0
 20
0.0
 30
0.0
  0
ENDBLK
  5
71769
330
71767
100
AcDbEntity
  8
0
 62
    98
370
     0
100
AcDbBlockEnd
  0
BLOCK
  5
7176B
330
7176A
100
AcDbEntity
  8
0
 62
    98
370
     0
100
AcDbBlockBegin
  2
ROUNDE_3
 70
     0
 10
0.0
 20
0.0
 30
0.0
  3
ROUNDE_3
  1

  0
INSERT
  5
71464
330
7176A
100
AcDbEntity
  8
Level 26
 62
     7
370
    13
100
AcDbBlockReference
  2
SUBTRC_3
 10
0.0
 20
0.0
 30
0.0
  0
ENDBLK
  5
7176C
330
7176A
100
AcDbEntity
  8
0
 62
    98
370
     0
100
AcDbBlockEnd
  0
BLOCK
  5
7176E
330
7176D
100
AcDbEntity
  8
0
 62
    98
370
     0
100
AcDbBlockBegin
  2
SUBTRC_3
 70
     0
 10
0.0
 20
0.0
 30
0.0
  3
SUBTRC_3
  1

  0
INSERT
  5
71467
330
7176D
100
AcDbEntity
  8
Level 26
 62
     7
370
    13
100
AcDbBlockReference
  2
Feature Solid_8
 10
0.0
 20
0.0
 30
0.0
  0
ENDBLK
  5
7176F
330
7176D
100
AcDbEntity
  8
0
 62
    98
370
     0
100
AcDbBlockEnd
  0
BLOCK
  5
71771
330
71770
100
AcDbEntity
  8
0
 62
    98
370
     0
100
AcDbBlockBegin
  2
Feature Solid_8
 70
     0
 10
0.0
 20
0.0
 30
0.0
  3
Feature Solid_8
  1

  0
INSERT
  5
71468
330
71770
100
AcDbEntity
  8
Level 26
 62
     7
370
    13
100
AcDbBlockReference
  2
UNITE_4
 10
0.0
 20
0.0
 30
0.0
  0
ENDBLK
  5
71772
330
71770
100
AcDbEntity
  8
0
 62
    98
370
     0
100
AcDbBlockEnd
  0
BLOCK
  5
71774
330
71773
100
AcDbEntity
  8
0
 62
    98
370
     0
100
AcDbBlockBegin
  2
UNITE_4
 70
     0
 10
0.0
 20
0.0
 30
0.0
  3
UNITE_4
  1

  0
INSERT
  5
71469
330
71773
100
AcDbEntity
  8
Level 26
 62
     7
370
    13
100
AcDbBlockReference
  2
Feature Solid_9
 10
0.0
 20
0.0
 30
0.0
  0
INSERT
  5
7146D
330
71773
100
AcDbEntity
  8
Level 26
 62
     7
370
    13
100
AcDbBlockReference
  2
Feature Solid_10
 10
68.949834
 20
965.19846
 30
0.0
 50
270.0
  0
ENDBLK
  5
71775
330
71773
100
AcDbEntity
  8
0
 62
    98
370
     0
100
AcDbBlockEnd
  0
BLOCK
  5
71777
330
71776
100
AcDbEntity
  8
0
 62
    98
370
     0
100
AcDbBlockBegin
  2
Feature Solid_9
 70
     0
 10
0.0
 20
0.0
 30
0.0
  3
Feature Solid_9
  1

  0
INSERT
  5
7146A
330
71776
100
AcDbEntity
  8
Level 26
 62
     7
370
    13
100
AcDbBlockReference
  2
SLAB
 10
0.0
 20
0.0
 30
0.0
  0
ENDBLK
  5
71778
330
71776
100
AcDbEntity
  8
0
 62
    98
370
     0
100
AcDbBlockEnd
  0
BLOCK
  5
7177A
330
71779
100
AcDbEntity
  8
0
 62
    98
370
     0
100
AcDbBlockBegin
  2
SLAB
 70
     0
 10
0.0
 20
0.0
 30
0.0
  3
SLAB
  1

  0
LINE
  5
7146B
330
71779
100
AcDbEntity
  8
Level 26
 62
     7
370
    13
100
AcDbLine
 10
422.574147
 20
423.124313
 30
0.0
 11
456.014547
 21
423.124313
 31
0.0
  0
POINT
  5
7146C
330
71779
100
AcDbEntity
  8
Level 26
 62
     7
370
    13
100
AcDbPoint
 10
456.014547
 20
423.124313
 30
0.0
  0
ENDBLK
  5
7177B
330
71779
100
AcDbEntity
  8
0
 62
    98
370
     0
100
AcDbBlockEnd
  0
BLOCK
  5
7177D
330
7177C
100
AcDbEntity
  8
0
 62
    98
370
     0
100
AcDbBlockBegin
  2
Feature Solid_10
 70
     0
 10
0.0
 20
0.0
 30
0.0
  3
Feature Solid_10
  1

  0
INSERT
  5
7146E
330
7177C
100
AcDbEntity
  8
Level 26
 62
     7
370
    13
100
AcDbBlockReference
  2
CONE
 10
0.0
 20
0.0
 30
0.0
  0
ENDBLK
  5
7177E
330
7177C
100
AcDbEntity
  8
0
 62
    98
370
     0
100
AcDbBlockEnd
  0
BLOCK
  5
71780
330
7177F
100
AcDbEntity
  8
0
 62
    98
370
     0
100
AcDbBlockBegin
  2
CONE
 70
     0
 10
0.0
 20
0.0
 30
0.0
  3
CONE
  1

  0
LINE
  5
7146F
330
7177F
100
AcDbEntity
  8
Level 26
 62
     7
370
    13
100
AcDbLine
 10
542.074147
 20
387.064713
 30
0.0
 11
536.074147
 21
397.457017
 31
0.0
  0
ENDBLK
  5
71781
330
7177F
100
AcDbEntity
  8
0
 62
    98
370
     0
100
AcDbBlockEnd
  0
BLOCK
  5
71783
330
71782
100
AcDbEntity
  8
0
 62
    98
370
     0
100
AcDbBlockBegin
  2
Feature Solid_11
 70
     0
 10
0.0
 20
0.0
 30
0.0
  3
Feature Solid_11
  1

  0
INSERT
  5
71471
330
71782
100
AcDbEntity
  8
Level 26
 62
     7
370
    13
100
AcDbBlockReference
  2
DDREVL
 10
0.0
 20
0.0
 30
0.0
  0
ENDBLK
  5
71784
330
71782
100
AcDbEntity
  8
0
 62
    98
370
     0
100
AcDbBlockEnd
  0
BLOCK
  5
71786
330
71785
100
AcDbEntity
  8
0
 62
    98
370
     0
100
AcDbBlockBegin
  2
DDREVL
 70
     0
 10
0.0
 20
0.0
 30
0.0
  3
DDREVL
  1

  0
POINT
  5
71472
330
71785
100
AcDbEntity
  8
Level 26
 62
     7
370
    13
100
AcDbPoint
 10
466.406852
 20
429.124313
 30
0.0
  0
ENDBLK
  5
71787
330
71785
100
AcDbEntity
  8
0
 62
    98
370
     0
100
AcDbBlockEnd
  0
BLOCK
  5
71789
330
71788
100
AcDbEntity
  8
0
 62
    98
370
     0
100
AcDbBlockBegin
  2
Feature Solid_12
 70
     0
 10
0.0
 20
0.0
 30
0.0
  3
Feature Solid_12
  1

  0
INSERT
  5
71497
330
71788
100
AcDbEntity
  8
Level 26
 62
     7
370
    13
100
AcDbBlockReference
  2
UNITE_5
 10
-745.63931
 20
909.248626
 30
0.0
 50
180.0
210
0.0
220
0.0
230
-1.0
  0
ENDBLK
  5
7178A
330
71788
100
AcDbEntity
  8
0
 62
    98
370
     0
100
AcDbBlockEnd
  0
BLOCK
  5
7178C
330
7178B
100
AcDbEntity
  8
0
 62
    98
370
     0
100
AcDbBlockBegin
  2
UNITE_5
 70
     0
 10
0.0
 20
0.0
 30
0.0
  3
UNITE_5
  1

  0
INSERT
  5
71498
330
7178B
100
AcDbEntity
  8
Level 26
 62
     7
370
    13
100
AcDbBlockReference
  2
Feature Solid_13
 10
0.0
 20
0.0
 30
0.0
  0
INSERT
  5
714A0
330
7178B
100
AcDbEntity
  8
Level 26
 62
     7
370
    13
100
AcDbBlockReference
  2
Feature Solid_14
 10
0.0
 20
0.0
 30
0.0
  0
ENDBLK
  5
7178D
330
7178B
100
AcDbEntity
  8
0
 62
    98
370
     0
100
AcDbBlockEnd
  0
BLOCK
  5
7178F
330
7178E
100
AcDbEntity
  8
0
 62
    98
370
     0
100
AcDbBlockBegin
  2
Feature Solid_13
 70
     0
 10
0.0
 20
0.0
 30
0.0
  3
Feature Solid_13
  1

  0
INSERT
  5
71499
330
7178E
100
AcDbEntity
  8
Level 26
 62
     7
370
    13
100
AcDbBlockReference
  2
DDREVL_1
 10
0.0
 20
0.0
 30
0.0
  0
ENDBLK
  5
71790
330
7178E
100
AcDbEntity
  8
0
 62
    98
370
     0
100
AcDbBlockEnd
  0
BLOCK
  5
71792
330
71791
100
AcDbEntity
  8
0
 62
    98
370
     0
100
AcDbBlockBegin
  2
DDREVL_1
 70
     0
 10
0.0
 20
0.0
 30
0.0
  3
DDREVL_1
  1

  0
ARC
  5
7149A
330
71791
100
AcDbEntity
  8
Level 26
 62
     7
370
    13
100
AcDbCircle
 10
-510.574147
 20
454.624313
 30
0.0
 40
51.00000000000336
210
0.0
220
0.0
230
-1.0
100
AcDbArc
 50
0.0
 51
359.999994
  0
ARC
  5
7149B
330
71791
100
AcDbEntity
  8
Level 26
 62
     7
370
    13
100
AcDbCircle
 10
-510.574147
 20
454.624313
 30
0.0
 40
73.31370849899091
210
0.0
220
0.0
230
-1.0
100
AcDbArc
 50
0.0
 51
359.999994
  0
LINE
  5
7149C
330
71791
100
AcDbEntity
  8
Level 26
 62
     7
370
    13
100
AcDbLine
 10
510.574147
 20
505.624313
 30
0.0
 11
510.574147
 21
527.938022
 31
0.0
  0
LINE
  5
7149D
330
71791
100
AcDbEntity
  8
Level 26
 62
     7
370
    13
100
AcDbLine
 10
561.574147
 20
454.624313
 30
0.0
 11
583.887856
 21
454.624313
 31
0.0
  0
LINE
  5
7149E
330
71791
100
AcDbEntity
  8
Level 26
 62
     7
370
    13
100
AcDbLine
 10
510.574147
 20
403.624313
 30
0.0
 11
510.574147
 21
381.310605
 31
0.0
  0
LINE
  5
7149F
330
71791
100
AcDbEntity
  8
Level 26
 62
     7
370
    13
100
AcDbLine
 10
459.574147
 20
454.624313
 30
0.0
 11
437.260439
 21
454.624313
 31
0.0
  0
ENDBLK
  5
71793
330
71791
100
AcDbEntity
  8
0
 62
    98
370
     0
100
AcDbBlockEnd
  0
BLOCK
  5
71795
330
71794
100
AcDbEntity
  8
0
 62
    98
370
     0
100
AcDbBlockBegin
  2
Feature Solid_14
 70
     0
 10
0.0
 20
0.0
 30
0.0
  3
Feature Solid_14
  1

  0
INSERT
  5
714A1
330
71794
100
AcDbEntity
  8
Level 26
 62
     7
370
    13
100
AcDbBlockReference
  2
ROUNDE_4
 10
0.0
 20
0.0
 30
0.0
  0
ENDBLK
  5
71796
330
71794
100
AcDbEntity
  8
0
 62
    98
370
     0
100
AcDbBlockEnd
  0
BLOCK
  5
71798
330
71797
100
AcDbEntity
  8
0
 62
    98
370
     0
100
AcDbBlockBegin
  2
ROUNDE_4
 70
     0
 10
0.0
 20
0.0
 30
0.0
  3
ROUNDE_4
  1

  0
INSERT
  5
714A2
330
71797
100
AcDbEntity
  8
Level 26
 62
     7
370
    13
100
AcDbBlockReference
  2
ROUNDE_5
 10
0.0
 20
0.0
 30
0.0
  0
SPLINE
  5
714FE
330
71797
100
AcDbEntity
  8
Level 26
 62
     7
370
    13
100
AcDbSpline
210
0.0
220
0.0
230
1.0
 70
     8
 71
     3
 72
    24
 73
    20
 74
     0
 42
0.000000001
 43
0.0000000001
 40
0.0
 40
0.0
 40
0.0
 40
0.0
 40
0.1249999999999999
 40
0.1249999999999999
 40
0.2499999999999997
 40
0.2499999999999997
 40
0.3749999999999996
 40
0.3749999999999996
 40
0.4999999999999995
 40
0.4999999999999995
 40
0.6249999999999993
 40
0.6249999999999993
 40
0.7499999999999992
 40
0.7499999999999992
 40
0.8749999999999989
 40
0.8749999999999989
 40
0.9374999999999996
 40
0.9374999999999996
 40
1.0
 40
1.0
 40
1.0
 40
1.0
 10
456.6829942165715
 20
423.1243130449727
 30
0.0
 10
457.2080727490936
 20
423.1243130449727
 30
0.0
 10
457.7503022684017
 20
422.9598232381119
 30
0.0
 10
458.891735172987
 20
422.3156683920808
 30
0.0
 10
459.4959298922754
 20
421.8302430823594
 30
0.0
 10
460.7587744140253
 20
420.554247805979
 30
0.0
 10
461.4091671038158
 20
419.7741014337878
 30
0.0
 10
462.7674968683966
 20
417.9446469277183
 30
0.0
 10
463.4827609682345
 20
416.8820458409561
 30
0.0
 10
464.9567423978577
 20
414.564207148265
 30
0.0
 10
465.7151753534543
 20
413.3098279182388
 30
0.0
 10
467.3302737274403
 20
410.6444333149904
 30
0.0
 10
468.1910191313531
 20
409.2226473879293
 30
0.0
 10
470.0656896204399
 20
406.3901442892103
 30
0.0
 10
471.0906243135519
 20
404.9510487405362
 30
0.0
 10
472.9175112310038
 20
402.9745854375139
 30
0.0
 10
473.5691899666563
 20
402.3557925788502
 30
0.0
 10
475.001548464303
 20
401.2481628139132
 30
0.0
 10
475.7866584879113
 20
400.7612102898171
 30
0.0
 10
476.6218540989035
 20
400.3809312772903
 30
0.0
  0
LINE
  5
71501
330
71797
100
AcDbEntity
  8
Level 26
 62
     7
370
    13
100
AcDbLine
 10
456.682994
 20
423.124313
 30
0.0
 11
456.014547
 21
423.124313
 31
0.0
  0
SPLINE
  5
71502
330
71797
100
AcDbEntity
  8
Level 26
 62
     7
370
    13
100
AcDbSpline
210
0.0
220
0.0
230
1.0
 70
     8
 71
     3
 72
    22
 73
    18
 74
     0
 42
0.000000001
 43
0.0000000001
 40
0.0
 40
0.0
 40
0.0
 40
0.0
 40
0.1250000000000001
 40
0.1250000000000001
 40
0.2500000000000002
 40
0.2500000000000002
 40
0.3750000000000003
 40
0.3750000000000003
 40
0.5000000000000005
 40
0.5000000000000005
 40
0.6250000000000004
 40
0.6250000000000004
 40
0.7500000000000002
 40
0.7500000000000002
 40
0.8750000000000001
 40
0.8750000000000001
 40
1.0
 40
1.0
 40
1.0
 40
1.0
 10
489.8565045954744
 20
408.0219603041225
 30
0.0
 10
487.9717771789799
 20
408.8598387996069
 30
0.0
 10
486.1646655330257
 20
409.7997860212329
 30
0.0
 10
482.7039269595705
 20
411.8655497180709
 30
0.0
 10
481.0313349528462
 20
413.007642542206
 30
0.0
 10
477.970474587644
 20
415.359499906335
 30
0.0
 10
476.5744636353319
 20
416.5700433971212
 30
0.0
 10
474.0286847441038
 20
419.0078127349913
 30
0.0
 10
472.8903689732738
 20
420.2269506520553
 30
0.0
 10
470.9356939692404
 20
422.498953807559
 30
0.0
 10
470.0952458563828
 20
423.578142215006
 30
0.0
 10
468.6960304522644
 20
425.4930666832512
 30
0.0
 10
468.1393285556463
 20
426.3232192647904
 30
0.0
 10
467.2557146043339
 20
427.6951626717971
 30
0.0
 10
466.9328674820298
 20
428.2309583049006
 30
0.0
 10
466.5112609356921
 20
428.9410008785837
 30
0.0
 10
466.4068517018342
 20
429.1243130449467
 30
0.0
 10
466.4068517018342
 20
429.1243130449467
 30
0.0
  0
LINE
  5
71505
330
71797
100
AcDbEntity
  8
Level 26
 62
     7
370
    13
100
AcDbLine
 10
456.014547
 20
423.124313
 30
0.0
 11
466.406852
 21
429.124313
 31
0.0
  0
LINE
  5
71506
330
71797
100
AcDbEntity
  8
Level 26
 62
     7
370
    13
100
AcDbLine
 10
476.621854
 20
400.380931
 30
0.0
 11
489.856505
 21
408.02196
 31
0.0
  0
ENDBLK
  5
71799
330
71797
100
AcDbEntity
  8
0
 62
    98
370
     0
100
AcDbBlockEnd
  0
BLOCK
  5
7179B
330
7179A
100
AcDbEntity
  8
0
 62
    98
370
     0
100
AcDbBlockBegin
  2
ROUNDE_5
 70
     0
 10
0.0
 20
0.0
 30
0.0
  3
ROUNDE_5
  1

  0
INSERT
  5
714A3
330
7179A
100
AcDbEntity
  8
Level 26
 62
     7
370
    13
100
AcDbBlockReference
  2
ROUNDE_6
 10
0.0
 20
0.0
 30
0.0
  0
SPLINE
  5
714E6
330
7179A
100
AcDbEntity
  8
Level 26
 62
     7
370
    13
100
AcDbSpline
210
0.0
220
0.0
230
1.0
 70
     8
 71
     3
 72
    14
 73
    10
 74
     0
 42
0.000000001
 43
0.0000000001
 40
0.0
 40
0.0
 40
0.0
 40
0.0
 40
0.25
 40
0.25
 40
0.5
 40
0.5
 40
0.75
 40
0.75
 40
1.0
 40
1.0
 40
1.0
 40
1.0
 10
437.957327875454
 20
434.715981238153
 30
0.0
 10
436.8810982937459
 20
437.9283630965426
 30
0.0
 10
436.0410447576247
 20
441.2243668068461
 30
0.0
 10
434.9163495099801
 20
447.8832442173959
 30
0.0
 10
434.6279549265755
 20
451.2476217008273
 30
0.0
 10
434.6308113074256
 20
458.0512129639089
 30
0.0
 10
434.9255545473936
 20
461.4386586002858
 30
0.0
 10
436.0512507611927
 20
468.065580140382
 30
0.0
 10
436.8820092225484
 20
471.3229819775335
 30
0.0
 10
437.957327875454
 20
474.5326448517892
 30
0.0
  0
SPLINE
  5
714E9
330
7179A
100
AcDbEntity
  8
Level 26
 62
     7
370
    13
100
AcDbSpline
210
0.0
220
0.0
230
1.0
 70
     8
 71
     3
 72
    10
 73
     6
 74
     0
 42
0.000000001
 43
0.0000000001
 40
0.0
 40
0.0
 40
0.0
 40
0.0
 40
0.5
 40
0.5
 40
1.0
 40
1.0
 40
1.0
 40
1.0
 10
426.7357752694245
 20
481.1243130449654
 30
0.0
 10
425.4909129561628
 20
472.353080344081
 30
0.0
 10
424.8470826245537
 20
463.5127141270524
 30
0.0
 10
424.846455910088
 20
445.7490399202145
 30
0.0
 10
425.4906616825302
 20
436.8973162063173
 30
0.0
 10
426.735775269424
 20
428.1243130449727
 30
0.0
  0
SPLINE
  5
714EC
330
7179A
100
AcDbEntity
  8
Level 26
 62
     7
370
    13
100
AcDbSpline
210
0.0
220
0.0
230
1.0
 70
     8
 71
     3
 72
    10
 73
     6
 74
     0
 42
0.000000001
 43
0.0000000001
 40
0.0
 40
0.0
 40
0.0
 40
0.0
 40
0.5
 40
0.5
 40
1.0
 40
1.0
 40
1.0
 40
1.0
 10
502.716030472029
 20
393.1243130449727
 30
0.0
 10
498.2114556221235
 20
393.5977371801398
 30
0.0
 10
493.7289634593148
 20
394.4547642636228
 30
0.0
 10
485.0015468048965
 20
396.9113626663313
 30
0.0
 10
480.7433169348901
 20
398.5043579370865
 30
0.0
 10
476.6218540988993
 20
400.3809312772939
 30
0.0
  0
SPLINE
  5
714EF
330
7179A
100
AcDbEntity
  8
Level 26
 62
     7
370
    13
100
AcDbSpline
210
0.0
220
0.0
230
1.0
 70
    24
 71
     3
 72
    16
 73
    12
 74
     0
 42
0.000000001
 43
0.0000000001
 40
0.0
 40
0.0
 40
0.0
 40
0.0
 40
0.2499999999999986
 40
0.2499999999999986
 40
0.3749999999999982
 40
0.3749999999999982
 40
0.4999999999999979
 40
0.4999999999999979
 40
0.749999999999999
 40
0.749999999999999
 40
1.0
 40
1.0
 40
1.0
 40
1.0
 10
456.6829942165715
 20
423.1243130449727
 30
0.0
 10
452.9659697276726
 20
423.1243130449727
 30
0.0
 10
449.3585223166691
 20
423.1243130449727
 30
0.0
 10
444.2565151951812
 20
423.1243130449727
 30
0.0
 10
442.6028904836383
 20
423.1243130449727
 30
0.0
 10
439.4002785285418
 20
423.1243130449727
 30
0.0
 10
437.8441332426378
 20
423.1243130449727
 30
0.0
 10
433.4262667612186
 20
423.1243130449727
 30
0.0
 10
430.7942900366965
 20
423.1243130449727
 30
0.0
 10
426.4705003483006
 20
423.1243130449727
 30
0.0
 10
424.734531020252
 20
423.1243130449727
 30
0.0
 10
423.5608713618336
 20
423.1243130449727
 30
0.0
  0
SPLINE
  5
714F2
330
7179A
100
AcDbEntity
  8
Level 26
 62
     7
370
    13
100
AcDbSpline
210
0.0
220
0.0
230
1.0
 70
     8
 71
     3
 72
    18
 73
    14
 74
     0
 42
0.000000001
 43
0.0000000001
 40
0.0
 40
0.0
 40
0.0
 40
0.0
 40
0.2500000000000013
 40
0.2500000000000013
 40
0.5000000000000027
 40
0.5000000000000027
 40
0.625000000000002
 40
0.625000000000002
 40
0.7500000000000014
 40
0.7500000000000014
 40
0.8750000000000007
 40
0.8750000000000007
 40
1.0
 40
1.0
 40
1.0
 40
1.0
 10
423.5608713618336
 20
423.1243130449727
 30
0.0
 10
423.9144609549436
 20
423.1243130449727
 30
0.0
 10
424.3980527694481
 20
423.1269763337338
 30
0.0
 10
425.4779308582363
 20
423.2111255445481
 30
0.0
 10
426.0740761224051
 20
423.287364073243
 30
0.0
 10
426.8755552375507
 20
423.6686182669029
 30
0.0
 10
427.1313786393655
 20
423.8443509690799
 30
0.0
 10
427.5744645896791
 20
424.3490016252438
 30
0.0
 10
427.7682477186811
 20
424.6798281128519
 30
0.0
 10
427.9670164336665
 20
425.5598100078666
 30
0.0
 10
427.9479865616029
 20
426.1263917067351
 30
0.0
 10
427.5180124906245
 20
427.2256437047238
 30
0.0
 10
427.138222313892
 20
427.7192244501264
 30
0.0
 10
426.7357752694245
 20
428.1243130449727
 30
0.0
  0
SPLINE
  5
714F5
330
7179A
100
AcDbEntity
  8
Level 26
 62
     7
370
    13
100
AcDbSpline
210
0.0
220
0.0
230
1.0
 70
     8
 71
     3
 72
    18
 73
    14
 74
     0
 42
0.000000001
 43
0.0000000001
 40
0.0
 40
0.0
 40
0.0
 40
0.0
 40
0.2500000000000007
 40
0.2500000000000007
 40
0.5000000000000014
 40
0.5000000000000014
 40
0.625000000000001
 40
0.625000000000001
 40
0.7500000000000007
 40
0.7500000000000007
 40
0.8750000000000003
 40
0.8750000000000003
 40
1.0
 40
1.0
 40
1.0
 40
1.0
 10
437.957327875454
 20
434.715981238153
 30
0.0
 10
438.8086639282993
 20
432.174872409668
 30
0.0
 10
439.6436503257966
 20
429.6093774769271
 30
0.0
 10
441.2299719601692
 20
424.5200006965062
 30
0.0
 10
441.9808878448917
 20
421.9865482909756
 30
0.0
 10
443.0617130770627
 20
418.372902211029
 30
0.0
 10
443.4113299915148
 20
417.2139356377313
 30
0.0
 10
444.1070001432802
 20
415.0446245716327
 30
0.0
 10
444.4590055944016
 20
414.0168533700073
 30
0.0
 10
445.176375732081
 20
412.2524799226223
 30
0.0
 10
445.5436986110415
 20
411.5088923829387
 30
0.0
 10
446.3474171248064
 20
410.4122476450613
 30
0.0
 10
446.7621684324015
 20
410.0936167032534
 30
0.0
 10
447.2888478209078
 20
409.8949786311834
 30
0.0
  0
SPLINE
  5
714F8
330
7179A
100
AcDbEntity
  8
Level 26
 62
     7
370
    13
100
AcDbSpline
210
0.0
220
0.0
230
1.0
 70
     8
 71
     3
 72
    20
 73
    16
 74
     0
 42
0.000000001
 43
0.0000000001
 40
0.0
 40
0.0
 40
0.0
 40
0.0
 40
0.0624999999999999
 40
0.0624999999999999
 40
0.1249999999999997
 40
0.1249999999999997
 40
0.25
 40
0.25
 40
0.3750000000000003
 40
0.3750000000000003
 40
0.5000000000000006
 40
0.5000000000000006
 40
0.7500000000000004
 40
0.7500000000000004
 40
1.0
 40
1.0
 40
1.0
 40
1.0
 10
447.2888478209078
 20
409.8949786311834
 30
0.0
 10
447.8005027065296
 20
409.7020070772134
 30
0.0
 10
448.5185766168571
 20
409.4293005605602
 30
0.0
 10
450.161312515704
 20
408.796416062534
 30
0.0
 10
451.1009115533321
 20
408.4305234041846
 30
0.0
 10
454.1342073460598
 20
407.2356252777951
 30
0.0
 10
456.3823413292886
 20
406.331861699555
 30
0.0
 10
460.9535678625209
 20
404.4946355635936
 30
0.0
 10
463.3210160971963
 20
403.5448065614066
 30
0.0
 10
468.0742445815438
 20
401.6964419574553
 30
0.0
 10
470.4637302419576
 20
400.7966453446413
 30
0.0
 10
477.680521599166
 20
398.2422376221123
 30
0.0
 10
482.5569246413898
 20
396.7372545389906
 30
0.0
 10
492.4912741835275
 20
394.3936466169209
 30
0.0
 10
497.5490352956438
 20
393.5524528358617
 30
0.0
 10
502.7160304719908
 20
393.1243130449727
 30
0.0
  0
ELLIPSE
  5
714FB
330
7179A
100
AcDbEntity
  8
Level 26
 62
     7
370
    13
100
AcDbEllipse
 10
423.560871
 20
393.124313
 30
0.0
 11
0.0
 21
30.00000000000005
 31
0.0
210
0.0
220
0.0
230
-1.0
 40
0.9539045718304091
 41
0.0000000000000036
 42
0.9775902890469803
  0
ELLIPSE
  5
714FC
330
7179A
100
AcDbEntity
  8
Level 26
 62
     7
370
    13
100
AcDbEllipse
 10
413.913828
 20
428.124313
 30
0.0
 11
27.77666546375666
 21
11.33388087614076
 31
0.0
210
0.0
220
0.0
230
1.0
 40
0.1758217249114043
 41
-1.16394104508646
 42
-0.6004811796356293
  0
ELLIPSE
  5
714FD
330
7179A
100
AcDbEntity
  8
Level 26
 62
     7
370
    13
100
AcDbEllipse
 10
419.174597
 20
402.344171
 30
0.0
 11
29.8659668357414
 21
2.832670995084711
 31
0.0
210
0.0
220
0.0
230
-1.0
 40
0.7542389838019896
 41
5.06909158854133
 42
5.742715018433877
  0
ENDBLK
  5
7179C
330
7179A
100
AcDbEntity
  8
0
 62
    98
370
     0
100
AcDbBlockEnd
  0
BLOCK
  5
7179E
330
7179D
100
AcDbEntity
  8
0
 62
    98
370
     0
100
AcDbBlockBegin
  2
ROUNDE_6
 70
     0
 10
0.0
 20
0.0
 30
0.0
  3
ROUNDE_6
  1

  0
INSERT
  5
714A4
330
7179D
100
AcDbEntity
  8
Level 26
 62
     7
370
    13
100
AcDbBlockReference
  2
SUBTRC_4
 10
0.0
 20
0.0
 30
0.0
  0
LINE
  5
714DC
330
7179D
100
AcDbEntity
  8
Level 26
 62
     7
370
    13
100
AcDbLine
 10
417.574147
 20
481.124313
 30
0.0
 11
417.574147
 21
428.124313
 31
0.0
  0
LINE
  5
714DD
330
7179D
100
AcDbEntity
  8
Level 26
 62
     7
370
    13
100
AcDbLine
 10
422.574147
 20
486.124313
 30
0.0
 11
422.574147
 21
423.124313
 31
0.0
  0
POINT
  5
714DE
330
7179D
100
AcDbEntity
  8
Level 26
 62
     7
370
    13
100
AcDbPoint
 10
417.574147
 20
428.124313
 30
0.0
  0
LINE
  5
714DF
330
7179D
100
AcDbEntity
  8
Level 26
 62
     7
370
    13
100
AcDbLine
 10
426.735775
 20
428.124313
 30
0.0
 11
417.574147
 21
428.124313
 31
0.0
  0
LINE
  5
714E0
330
7179D
100
AcDbEntity
  8
Level 26
 62
     7
370
    13
100
AcDbLine
 10
423.560871
 20
423.124313
 30
0.0
 11
422.574147
 21
423.124313
 31
0.0
  0
POINT
  5
714E1
330
7179D
100
AcDbEntity
  8
Level 26
 62
     7
370
    13
100
AcDbPoint
 10
422.574147
 20
423.124313
 30
0.0
  0
ARC
  5
714E2
330
7179D
100
AcDbEntity
  8
Level 26
 62
     7
370
    13
100
AcDbCircle
 10
422.574147
 20
428.124313
 30
0.0
 40
5.0
100
AcDbArc
 50
180.0
 51
270.0
  0
ARC
  5
714E3
330
7179D
100
AcDbEntity
  8
Level 26
 62
     7
370
    13
100
AcDbCircle
 10
422.574147
 20
428.124313
 30
0.0
 40
5.000000000000001
100
AcDbArc
 50
180.0
 51
270.0
  0
LINE
  5
714E4
330
7179D
100
AcDbEntity
  8
Level 26
 62
     7
370
    13
100
AcDbLine
 10
422.574147
 20
454.624313
 30
0.0
 11
417.574147
 21
454.624313
 31
0.0
  0
ARC
  5
714E5
330
7179D
100
AcDbEntity
  8
Level 26
 62
     7
370
    13
100
AcDbCircle
 10
-422.574147
 20
428.124313
 30
0.0
 40
5.000000000000001
210
0.0
220
0.0
230
-1.0
100
AcDbArc
 50
270.0
 51
0.0
  0
ENDBLK
  5
7179F
330
7179D
100
AcDbEntity
  8
0
 62
    98
370
     0
100
AcDbBlockEnd
  0
BLOCK
  5
717A1
330
717A0
100
AcDbEntity
  8
0
 62
    98
370
     0
100
AcDbBlockBegin
  2
SUBTRC_4
 70
     0
 10
0.0
 20
0.0
 30
0.0
  3
SUBTRC_4
  1

  0
INSERT
  5
714A7
330
717A0
100
AcDbEntity
  8
Level 26
 62
     7
370
    13
100
AcDbBlockReference
  2
Feature Solid_15
 10
0.0
 20
0.0
 30
0.0
  0
ENDBLK
  5
717A2
330
717A0
100
AcDbEntity
  8
0
 62
    98
370
     0
100
AcDbBlockEnd
  0
BLOCK
  5
717A4
330
717A3
100
AcDbEntity
  8
0
 62
    98
370
     0
100
AcDbBlockBegin
  2
Feature Solid_15
 70
     0
 10
0.0
 20
0.0
 30
0.0
  3
Feature Solid_15
  1

  0
INSERT
  5
714A8
330
717A3
100
AcDbEntity
  8
Level 26
 62
     7
370
    13
100
AcDbBlockReference
  2
SUBTRC_5
 10
0.0
 20
0.0
 30
0.0
  0
ENDBLK
  5
717A5
330
717A3
100
AcDbEntity
  8
0
 62
    98
370
     0
100
AcDbBlockEnd
  0
BLOCK
  5
717A7
330
717A6
100
AcDbEntity
  8
0
 62
    98
370
     0
100
AcDbBlockBegin
  2
SUBTRC_5
 70
     0
 10
0.0
 20
0.0
 30
0.0
  3
SUBTRC_5
  1

  0
INSERT
  5
714AB
330
717A6
100
AcDbEntity
  8
Level 26
 62
     7
370
    13
100
AcDbBlockReference
  2
Feature Solid_16
 10
0.0
 20
0.0
 30
0.0
  0
ENDBLK
  5
717A8
330
717A6
100
AcDbEntity
  8
0
 62
    98
370
     0
100
AcDbBlockEnd
  0
BLOCK
  5
717AA
330
717A9
100
AcDbEntity
  8
0
 62
    98
370
     0
100
AcDbBlockBegin
  2
Feature Solid_16
 70
     0
 10
0.0
 20
0.0
 30
0.0
  3
Feature Solid_16
  1

  0
INSERT
  5
714AC
330
717A9
100
AcDbEntity
  8
Level 26
 62
     7
370
    13
100
AcDbBlockReference
  2
UNITE_6
 10
0.0
 20
0.0
 30
0.0
  0
ENDBLK
  5
717AB
330
717A9
100
AcDbEntity
  8
0
 62
    98
370
     0
100
AcDbBlockEnd
  0
BLOCK
  5
717AD
330
717AC
100
AcDbEntity
  8
0
 62
    98
370
     0
100
AcDbBlockBegin
  2
UNITE_6
 70
     0
 10
0.0
 20
0.0
 30
0.0
  3
UNITE_6
  1

  0
INSERT
  5
714AD
330
717AC
100
AcDbEntity
  8
Level 26
 62
     7
370
    13
100
AcDbBlockReference
  2
Feature Solid_17
 10
0.0
 20
0.0
 30
0.0
  0
INSERT
  5
714CC
330
717AC
100
AcDbEntity
  8
Level 26
 62
     7
370
    13
100
AcDbBlockReference
  2
Feature Solid_23
 10
0.0
 20
0.0
 30
0.0
  0
ENDBLK
  5
717AE
330
717AC
100
AcDbEntity
  8
0
 62
    98
370
     0
100
AcDbBlockEnd
  0
BLOCK
  5
717B0
330
717AF
100
AcDbEntity
  8
0
 62
    98
370
     0
100
AcDbBlockBegin
  2
Feature Solid_17
 70
     0
 10
0.0
 20
0.0
 30
0.0
  3
Feature Solid_17
  1

  0
INSERT
  5
714AE
330
717AF
100
AcDbEntity
  8
Level 26
 62
     7
370
    13
100
AcDbBlockReference
  2
SUBTRC_6
 10
0.0
 20
0.0
 30
0.0
  0
ENDBLK
  5
717B1
330
717AF
100
AcDbEntity
  8
0
 62
    98
370
     0
100
AcDbBlockEnd
  0
BLOCK
  5
717B3
330
717B2
100
AcDbEntity
  8
0
 62
    98
370
     0
100
AcDbBlockBegin
  2
SUBTRC_6
 70
     0
 10
0.0
 20
0.0
 30
0.0
  3
SUBTRC_6
  1

  0
INSERT
  5
714B1
330
717B2
100
AcDbEntity
  8
Level 26
 62
     7
370
    13
100
AcDbBlockReference
  2
Feature Solid_18
 10
0.0
 20
0.0
 30
0.0
  0
ENDBLK
  5
717B4
330
717B2
100
AcDbEntity
  8
0
 62
    98
370
     0
100
AcDbBlockEnd
  0
BLOCK
  5
717B6
330
717B5
100
AcDbEntity
  8
0
 62
    98
370
     0
100
AcDbBlockBegin
  2
Feature Solid_18
 70
     0
 10
0.0
 20
0.0
 30
0.0
  3
Feature Solid_18
  1

  0
INSERT
  5
714B2
330
717B5
100
AcDbEntity
  8
Level 26
 62
     7
370
    13
100
AcDbBlockReference
  2
ROUNDE_7
 10
0.0
 20
0.0
 30
0.0
  0
ENDBLK
  5
717B7
330
717B5
100
AcDbEntity
  8
0
 62
    98
370
     0
100
AcDbBlockEnd
  0
BLOCK
  5
717B9
330
717B8
100
AcDbEntity
  8
0
 62
    98
370
     0
100
AcDbBlockBegin
  2
ROUNDE_7
 70
     0
 10
0.0
 20
0.0
 30
0.0
  3
ROUNDE_7
  1

  0
INSERT
  5
714B3
330
717B8
100
AcDbEntity
  8
Level 26
 62
     7
370
    13
100
AcDbBlockReference
  2
SUBTRC_7
 10
0.0
 20
0.0
 30
0.0
  0
LINE
  5
714CB
330
717B8
100
AcDbEntity
  8
Level 26
 62
     7
370
    13
100
AcDbLine
 10
417.574147
 20
481.124313
 30
0.0
 11
417.574147
 21
428.124313
 31
0.0
  0
ENDBLK
  5
717BA
330
717B8
100
AcDbEntity
  8
0
 62
    98
370
     0
100
AcDbBlockEnd
  0
BLOCK
  5
717BC
330
717BB
100
AcDbEntity
  8
0
 62
    98
370
     0
100
AcDbBlockBegin
  2
SUBTRC_7
 70
     0
 10
0.0
 20
0.0
 30
0.0
  3
SUBTRC_7
  1

  0
INSERT
  5
714B4
330
717BB
100
AcDbEntity
  8
Level 26
 62
     7
370
    13
100
AcDbBlockReference
  2
Feature Solid_19
 10
0.0
 20
0.0
 30
0.0
  0
INSERT
  5
714BE
330
717BB
100
AcDbEntity
  8
Level 26
 62
     7
370
    13
100
AcDbBlockReference
  2
Feature Solid_20
 10
0.0
 20
0.0
 30
0.0
  0
ENDBLK
  5
717BD
330
717BB
100
AcDbEntity
  8
0
 62
    98
370
     0
100
AcDbBlockEnd
  0
BLOCK
  5
717BF
330
717BE
100
AcDbEntity
  8
0
 62
    98
370
     0
100
AcDbBlockBegin
  2
Feature Solid_19
 70
     0
 10
0.0
 20
0.0
 30
0.0
  3
Feature Solid_19
  1

  0
INSERT
  5
714B5
330
717BE
100
AcDbEntity
  8
Level 26
 62
     7
370
    13
100
AcDbBlockReference
  2
CONE_1
 10
0.0
 20
0.0
 30
0.0
  0
ENDBLK
  5
717C0
330
717BE
100
AcDbEntity
  8
0
 62
    98
370
     0
100
AcDbBlockEnd
  0
BLOCK
  5
717C2
330
717C1
100
AcDbEntity
  8
0
 62
    98
370
     0
100
AcDbBlockBegin
  2
CONE_1
 70
     0
 10
0.0
 20
0.0
 30
0.0
  3
CONE_1
  1

  0
LINE
  5
714B6
330
717C1
100
AcDbEntity
  8
Level 26
 62
     7
370
    13
100
AcDbLine
 10
417.574147
 20
433.124313
 30
0.0
 11
417.574147
 21
476.124313
 31
0.0
  0
SPLINE
  5
714B7
330
717C1
100
AcDbEntity
  8
Level 26
 62
     7
370
    13
100
AcDbSpline
210
0.0
220
0.0
230
1.0
 70
    11
 71
     3
 72
    62
 73
    58
 74
     0
 42
0.000000001
 43
0.0000000001
 40
0.0
 40
0.0
 40
0.0
 40
0.0
 40
0.03125
 40
0.03125
 40
0.0625
 40
0.0625
 40
0.0937499999999999
 40
0.0937499999999999
 40
0.1249999999999999
 40
0.1249999999999999
 40
0.1874999999999999
 40
0.1874999999999999
 40
0.2187499999999999
 40
0.2187499999999999
 40
0.2499999999999999
 40
0.2499999999999999
 40
0.2812499999999999
 40
0.2812499999999999
 40
0.3125
 40
0.3125
 40
0.34375
 40
0.34375
 40
0.375
 40
0.375
 40
0.40625
 40
0.40625
 40
0.4375000000000001
 40
0.4375000000000001
 40
0.5
 40
0.5
 40
0.53125
 40
0.53125
 40
0.5625
 40
0.5625
 40
0.59375
 40
0.59375
 40
0.625
 40
0.625
 40
0.65625
 40
0.65625
 40
0.6874999999999999
 40
0.6874999999999999
 40
0.7187499999999999
 40
0.7187499999999999
 40
0.7499999999999999
 40
0.7499999999999999
 40
0.8124999999999998
 40
0.8124999999999998
 40
0.8437499999999998
 40
0.8437499999999998
 40
0.8749999999999998
 40
0.8749999999999998
 40
0.9374999999999998
 40
0.9374999999999998
 40
0.9687499999999998
 40
0.9687499999999998
 40
1.0
 40
1.0
 40
1.0
 40
1.0
 10
459.5741472948287
 20
454.6243130449654
 30
0.0
 10
459.5741472948287
 20
456.0624155781977
 30
0.0
 10
459.634815802197
 20
457.4733575979396
 30
0.0
 10
459.8656591740828
 20
460.2440799697826
 30
0.0
 10
460.038862002749
 20
461.6183700093663
 30
0.0
 10
460.4668275057627
 20
464.2153711685202
 30
0.0
 10
460.720767456667
 20
465.4442081484533
 30
0.0
 10
461.2825929298633
 20
467.7686000025871
 30
0.0
 10
461.5888270320221
 20
468.8542119088435
 30
0.0
 10
462.5062591489577
 20
471.7906935865841
 30
0.0
 10
463.1342736213738
 20
473.3813839164711
 30
0.0
 10
463.8169403542997
 20
474.9984616057948
 30
0.0
 10
464.0058450357974
 20
475.4206563984678
 30
0.0
 10
464.2601589006321
 20
475.9810251324441
 30
0.0
 10
464.3266330018239
 20
476.1223926362734
 30
0.0
 10
464.3284006986534
 20
476.1261949662828
 30
0.0
 10
464.2613178415857
 20
475.9834977986368
 30
0.0
 10
464.0092736272058
 20
475.4282906844689
 30
0.0
 10
463.8244000263084
 20
475.0157577103748
 30
0.0
 10
463.3640291481772
 20
473.9259873192906
 30
0.0
 10
463.0952599405441
 20
473.2640260136652
 30
0.0
 10
462.5159853026308
 20
471.7151500603965
 30
0.0
 10
462.2025415176759
 20
470.818263886895
 30
0.0
 10
461.5893931273175
 20
468.8563244446107
 30
0.0
 10
461.2877742375871
 20
467.7878687770928
 30
0.0
 10
460.7257233255384
 20
465.4668402608933
 30
0.0
 10
460.4674726997944
 20
464.2176467323045
 30
0.0
 10
459.828642637846
 20
460.3459664724953
 30
0.0
 10
459.5757644956521
 20
457.4864119283931
 30
0.0
 10
459.5733510310333
 20
453.2367089961582
 30
0.0
 10
459.6332981645148
 20
451.7983379587497
 30
0.0
 10
459.864753503168
 20
449.0106131431609
 30
0.0
 10
460.0342066824977
 20
447.6631442337818
 30
0.0
 10
460.4621276960871
 20
445.0572361637503
 30
0.0
 10
460.720335994204
 20
443.8070767512993
 30
0.0
 10
461.2789055999638
 20
441.4944140173199
 30
0.0
 10
461.5835083252228
 20
440.4119751406017
 30
0.0
 10
462.2010838159499
 20
438.4341930631214
 30
0.0
 10
462.5085220155595
 20
437.5544578964452
 30
0.0
 10
463.0874047839985
 20
436.0046037564541
 30
0.0
 10
463.3614058921142
 20
435.3291755857505
 30
0.0
 10
463.818504838421
 20
434.2465021022223
 30
0.0
 10
464.0032798087406
 20
433.8336981786008
 30
0.0
 10
464.2584656228557
 20
433.2712571468317
 30
0.0
 10
464.326883803198
 20
433.1256939771958
 30
0.0
 10
464.3287957706451
 20
433.1215813220739
 30
0.0
 10
464.0508187362113
 20
433.6970104780832
 30
0.0
 10
463.3670080255265
 20
435.3155320054145
 30
0.0
 10
463.0934873433677
 20
435.9890396368466
 30
0.0
 10
462.5132082126866
 20
437.5412038734964
 30
0.0
 10
462.2055076152151
 20
438.4211235120781
 30
0.0
 10
461.280202020599
 20
441.3811419261844
 30
0.0
 10
460.6852426650692
 20
443.7087208312489
 30
0.0
 10
460.0373031468205
 20
447.6392845415696
 30
0.0
 10
459.8677611249624
 20
448.9860738247337
 30
0.0
 10
459.6361191063951
 20
451.7529676832034
 30
0.0
 10
459.5741472948287
 20
453.1862105117332
 30
0.0
 10
459.5741472948287
 20
454.6243130449654
 30
0.0
  0
LINE
  5
714BA
330
717C1
100
AcDbEntity
  8
Level 26
 62
     7
370
    13
100
AcDbLine
 10
417.574147
 20
433.124313
 30
0.0
 11
464.302451
 21
433.124313
 31
0.0
  0
LINE
  5
714BB
330
717C1
100
AcDbEntity
  8
Level 26
 62
     7
370
    13
100
AcDbLine
 10
417.574147
 20
454.624313
 30
0.0
 11
459.592702
 21
454.624313
 31
0.0
  0
LINE
  5
714BC
330
717C1
100
AcDbEntity
  8
Level 26
 62
     7
370
    13
100
AcDbLine
 10
417.574147
 20
476.124313
 30
0.0
 11
464.291502
 21
476.124313
 31
0.0
  0
LINE
  5
714BD
330
717C1
100
AcDbEntity
  8
Level 26
 62
     7
370
    13
100
AcDbLine
 10
417.574147
 20
454.624313
 30
0.0
 11
459.574147
 21
454.624313
 31
0.0
  0
ENDBLK
  5
717C3
330
717C1
100
AcDbEntity
  8
0
 62
    98
370
     0
100
AcDbBlockEnd
  0
BLOCK
  5
717C5
330
717C4
100
AcDbEntity
  8
0
 62
    98
370
     0
100
AcDbBlockBegin
  2
Feature Solid_20
 70
     0
 10
0.0
 20
0.0
 30
0.0
  3
Feature Solid_20
  1

  0
INSERT
  5
714BF
330
717C4
100
AcDbEntity
  8
Level 26
 62
     7
370
    13
100
AcDbBlockReference
  2
UNITE_7
 10
0.0
 20
0.0
 30
0.0
  0
ENDBLK
  5
717C6
330
717C4
100
AcDbEntity
  8
0
 62
    98
370
     0
100
AcDbBlockEnd
  0
BLOCK
  5
717C8
330
717C7
100
AcDbEntity
  8
0
 62
    98
370
     0
100
AcDbBlockBegin
  2
UNITE_7
 70
     0
 10
0.0
 20
0.0
 30
0.0
  3
UNITE_7
  1

  0
INSERT
  5
714C0
330
717C7
100
AcDbEntity
  8
Level 26
 62
     7
370
    13
100
AcDbBlockReference
  2
Feature Solid_21
 10
0.0
 20
0.0
 30
0.0
  0
INSERT
  5
714C4
330
717C7
100
AcDbEntity
  8
Level 26
 62
     7
370
    13
100
AcDbBlockReference
  2
Feature Solid_22
 10
68.949834
 20
965.19846
 30
0.0
 50
270.0
  0
ENDBLK
  5
717C9
330
717C7
100
AcDbEntity
  8
0
 62
    98
370
     0
100
AcDbBlockEnd
  0
BLOCK
  5
717CB
330
717CA
100
AcDbEntity
  8
0
 62
    98
370
     0
100
AcDbBlockBegin
  2
Feature Solid_21
 70
     0
 10
0.0
 20
0.0
 30
0.0
  3
Feature Solid_21
  1

  0
INSERT
  5
714C1
330
717CA
100
AcDbEntity
  8
Level 26
 62
     7
370
    13
100
AcDbBlockReference
  2
SLAB_1
 10
0.0
 20
0.0
 30
0.0
  0
ENDBLK
  5
717CC
330
717CA
100
AcDbEntity
  8
0
 62
    98
370
     0
100
AcDbBlockEnd
  0
BLOCK
  5
717CE
330
717CD
100
AcDbEntity
  8
0
 62
    98
370
     0
100
AcDbBlockBegin
  2
SLAB_1
 70
     0
 10
0.0
 20
0.0
 30
0.0
  3
SLAB_1
  1

  0
LINE
  5
714C2
330
717CD
100
AcDbEntity
  8
Level 26
 62
     7
370
    13
100
AcDbLine
 10
422.574147
 20
423.124313
 30
0.0
 11
456.014547
 21
423.124313
 31
0.0
  0
POINT
  5
714C3
330
717CD
100
AcDbEntity
  8
Level 26
 62
     7
370
    13
100
AcDbPoint
 10
456.014547
 20
423.124313
 30
0.0
  0
ENDBLK
  5
717CF
330
717CD
100
AcDbEntity
  8
0
 62
    98
370
     0
100
AcDbBlockEnd
  0
BLOCK
  5
717D1
330
717D0
100
AcDbEntity
  8
0
 62
    98
370
     0
100
AcDbBlockBegin
  2
Feature Solid_22
 70
     0
 10
0.0
 20
0.0
 30
0.0
  3
Feature Solid_22
  1

  0
INSERT
  5
714C5
330
717D0
100
AcDbEntity
  8
Level 26
 62
     7
370
    13
100
AcDbBlockReference
  2
CONE_2
 10
0.0
 20
0.0
 30
0.0
  0
ENDBLK
  5
717D2
330
717D0
100
AcDbEntity
  8
0
 62
    98
370
     0
100
AcDbBlockEnd
  0
BLOCK
  5
717D4
330
717D3
100
AcDbEntity
  8
0
 62
    98
370
     0
100
AcDbBlockBegin
  2
CONE_2
 70
     0
 10
0.0
 20
0.0
 30
0.0
  3
CONE_2
  1

  0
SPLINE
  5
714C6
330
717D3
100
AcDbEntity
  8
Level 26
 62
     7
370
    13
100
AcDbSpline
210
0.0
220
0.0
230
1.0
 70
     8
 71
     3
 72
    26
 73
    22
 74
     0
 42
0.000000001
 43
0.0000000001
 40
0.0
 40
0.0
 40
0.0
 40
0.0
 40
0.1249999999999999
 40
0.1249999999999999
 40
0.2499999999999997
 40
0.2499999999999997
 40
0.3124999999999996
 40
0.3124999999999996
 40
0.3749999999999996
 40
0.3749999999999996
 40
0.4999999999999997
 40
0.4999999999999997
 40
0.5624999999999997
 40
0.5624999999999997
 40
0.6249999999999999
 40
0.6249999999999999
 40
0.7499999999999999
 40
0.7499999999999999
 40
0.8749999999999998
 40
0.8749999999999998
 40
1.0
 40
1.0
 40
1.0
 40
1.0
 10
485.074147294812
 20
397.4570174519709
 30
0.0
 10
486.4980948108323
 20
396.634900970285
 30
0.0
 10
488.1210545362641
 20
395.7888550560718
 30
0.0
 10
491.7936062703392
 20
394.1656798756058
 30
0.0
 10
493.8255727204346
 20
393.3996964089057
 30
0.0
 10
497.0807283576204
 20
392.4286857456091
 30
0.0
 10
498.2054023569599
 20
392.1324237842319
 30
0.0
 10
500.5410690701792
 20
391.6066132250737
 30
0.0
 10
501.7604608963875
 20
391.3763756365861
 30
0.0
 10
505.4374786497987
 20
390.8231342974493
 30
0.0
 10
507.9438815645763
 20
390.627640037479
 30
0.0
 10
511.7912996490636
 20
390.6227122950108
 30
0.0
 10
513.0841199178917
 20
390.6703683570322
 30
0.0
 10
515.610508474238
 20
390.8577934882726
 30
0.0
 10
516.855246454384
 20
390.9973799675052
 30
0.0
 10
520.5358630235455
 20
391.545191071164
 30
0.0
 10
522.9156474325991
 20
392.0874395917124
 30
0.0
 10
527.2934013166686
 20
393.3886312095487
 30
0.0
 10
529.3444707952403
 20
394.1618849147289
 30
0.0
 10
533.00685181595
 20
395.7791290427583
 30
0.0
 10
534.6458475724643
 20
396.6323882227616
 30
0.0
 10
536.074147294868
 20
397.4570174519751
 30
0.0
  0
LINE
  5
714C9
330
717D3
100
AcDbEntity
  8
Level 26
 62
     7
370
    13
100
AcDbLine
 10
542.074147
 20
387.064713
 30
0.0
 11
536.074147
 21
397.457017
 31
0.0
  0
LINE
  5
714CA
330
717D3
100
AcDbEntity
  8
Level 26
 62
     7
370
    13
100
AcDbLine
 10
510.574147
 20
353.624313
 30
0.0
 11
510.574147
 21
390.667037
 31
0.0
  0
ENDBLK
  5
717D5
330
717D3
100
AcDbEntity
  8
0
 62
    98
370
     0
100
AcDbBlockEnd
  0
BLOCK
  5
717D7
330
717D6
100
AcDbEntity
  8
0
 62
    98
370
     0
100
AcDbBlockBegin
  2
Feature Solid_23
 70
     0
 10
0.0
 20
0.0
 30
0.0
  3
Feature Solid_23
  1

  0
INSERT
  5
714CD
330
717D6
100
AcDbEntity
  8
Level 26
 62
     7
370
    13
100
AcDbBlockReference
  2
DDREVL_2
 10
0.0
 20
0.0
 30
0.0
  0
ENDBLK
  5
717D8
330
717D6
100
AcDbEntity
  8
0
 62
    98
370
     0
100
AcDbBlockEnd
  0
BLOCK
  5
717DA
330
717D9
100
AcDbEntity
  8
0
 62
    98
370
     0
100
AcDbBlockBegin
  2
DDREVL_2
 70
     0
 10
0.0
 20
0.0
 30
0.0
  3
DDREVL_2
  1

  0
ARC
  5
714CE
330
717D9
100
AcDbEntity
  8
Level 26
 62
     7
370
    13
100
AcDbCircle
 10
-510.574147
 20
454.624313
 30
0.0
 40
51.00000000000884
210
0.0
220
0.0
230
-1.0
100
AcDbArc
 50
66.031879
 51
293.968121
  0
ARC
  5
714CF
330
717D9
100
AcDbEntity
  8
Level 26
 62
     7
370
    13
100
AcDbCircle
 10
-510.574147
 20
454.624313
 30
0.0
 40
62.00000000000894
210
0.0
220
0.0
230
-1.0
100
AcDbArc
 50
82.71853
 51
277.28147
  0
LINE
  5
714D0
330
717D9
100
AcDbEntity
  8
Level 26
 62
     7
370
    13
100
AcDbLine
 10
466.406852
 20
429.124313
 30
0.0
 11
466.406852
 21
429.124313
 31
0.0
  0
POINT
  5
714D1
330
717D9
100
AcDbEntity
  8
Level 26
 62
     7
370
    13
100
AcDbPoint
 10
510.574147
 20
505.624313
 30
0.0
  0
LINE
  5
714D2
330
717D9
100
AcDbEntity
  8
Level 26
 62
     7
370
    13
100
AcDbLine
 10
459.574147
 20
454.624313
 30
0.0
 11
459.574147
 21
454.624313
 31
0.0
  0
POINT
  5
714D3
330
717D9
100
AcDbEntity
  8
Level 26
 62
     7
370
    13
100
AcDbPoint
 10
459.574147
 20
454.624313
 30
0.0
  0
POINT
  5
714D4
330
717D9
100
AcDbEntity
  8
Level 26
 62
     7
370
    13
100
AcDbPoint
 10
510.574147
 20
403.624313
 30
0.0
  0
POINT
  5
714D5
330
717D9
100
AcDbEntity
  8
Level 26
 62
     7
370
    13
100
AcDbPoint
 10
561.574147
 20
454.624313
 30
0.0
  0
ARC
  5
714D6
330
717D9
100
AcDbEntity
  8
Level 26
 62
     7
370
    13
100
AcDbCircle
 10
-510.574147
 20
454.624313
 30
0.0
 40
78.00000000000899
210
0.0
220
0.0
230
-1.0
100
AcDbArc
 50
33.871143
 51
90.0
  0
ARC
  5
714D7
330
717D9
100
AcDbEntity
  8
Level 26
 62
     7
370
    13
100
AcDbCircle
 10
-510.574147
 20
454.624313
 30
0.0
 40
78.00000000000899
210
0.0
220
0.0
230
-1.0
100
AcDbArc
 50
90.0
 51
326.128272
  0
LINE
  5
714D8
330
717D9
100
AcDbEntity
  8
Level 26
 62
     7
370
    13
100
AcDbLine
 10
437.260439
 20
454.624313
 30
0.0
 11
434.632456
 21
454.624313
 31
0.0
  0
LINE
  5
714D9
330
717D9
100
AcDbEntity
  8
Level 26
 62
     7
370
    13
100
AcDbLine
 10
510.574147
 20
392.624313
 30
0.0
 11
510.574147
 21
376.624313
 31
0.0
  0
LINE
  5
714DA
330
717D9
100
AcDbEntity
  8
Level 26
 62
     7
370
    13
100
AcDbLine
 10
572.574147
 20
454.624313
 30
0.0
 11
588.574147
 21
454.624313
 31
0.0
  0
LINE
  5
714DB
330
717D9
100
AcDbEntity
  8
Level 26
 62
     7
370
    13
100
AcDbLine
 10
510.574147
 20
532.624313
 30
0.0
 11
510.574147
 21
516.624313
 31
0.0
  0
ENDBLK
  5
717DB
330
717D9
100
AcDbEntity
  8
0
 62
    98
370
     0
100
AcDbBlockEnd
  0
BLOCK
  5
717DD
330
717DC
100
AcDbEntity
  8
0
 62
    98
370
     0
100
AcDbBlockBegin
  2
Feature Solid_24
 70
     0
 10
0.0
 20
0.0
 30
0.0
  3
Feature Solid_24
  1

  0
INSERT
  5
71509
330
717DC
100
AcDbEntity
  8
Level 26
 62
     7
370
    13
100
AcDbBlockReference
  2
UNITE_8
 10
-1248.75
 20
-454.65
 30
0.0
  0
ENDBLK
  5
717DE
330
717DC
100
AcDbEntity
  8
0
 62
    98
370
     0
100
AcDbBlockEnd
  0
BLOCK
  5
717E0
330
717DF
100
AcDbEntity
  8
0
 62
    98
370
     0
100
AcDbBlockBegin
  2
UNITE_8
 70
     0
 10
0.0
 20
0.0
 30
0.0
  3
UNITE_8
  1

  0
INSERT
  5
7150A
330
717DF
100
AcDbEntity
  8
Level 26
 62
     7
370
    13
100
AcDbBlockReference
  2
Feature Solid_25
 10
0.0
 20
0.0
 30
0.0
  0
INSERT
  5
71555
330
717DF
100
AcDbEntity
  8
Level 26
 62
     7
370
    13
100
AcDbBlockReference
  2
Feature Solid_36
 10
0.0
 20
0.0
 30
0.0
  0
ENDBLK
  5
717E1
330
717DF
100
AcDbEntity
  8
0
 62
    98
370
     0
100
AcDbBlockEnd
  0
BLOCK
  5
717E3
330
717E2
100
AcDbEntity
  8
0
 62
    98
370
     0
100
AcDbBlockBegin
  2
Feature Solid_25
 70
     0
 10
0.0
 20
0.0
 30
0.0
  3
Feature Solid_25
  1

  0
INSERT
  5
7150B
330
717E2
100
AcDbEntity
  8
Level 26
 62
     7
370
    13
100
AcDbBlockReference
  2
UNITE_9
 10
745.63931
 20
0.0
 30
0.0
  0
ENDBLK
  5
717E4
330
717E2
100
AcDbEntity
  8
0
 62
    98
370
     0
100
AcDbBlockEnd
  0
BLOCK
  5
717E6
330
717E5
100
AcDbEntity
  8
0
 62
    98
370
     0
100
AcDbBlockBegin
  2
UNITE_9
 70
     0
 10
0.0
 20
0.0
 30
0.0
  3
UNITE_9
  1

  0
INSERT
  5
7150C
330
717E5
100
AcDbEntity
  8
Level 26
 62
     7
370
    13
100
AcDbBlockReference
  2
Feature Solid_26
 10
0.0
 20
0.0
 30
0.0
  0
ENDBLK
  5
717E7
330
717E5
100
AcDbEntity
  8
0
 62
    98
370
     0
100
AcDbBlockEnd
  0
BLOCK
  5
717E9
330
717E8
100
AcDbEntity
  8
0
 62
    98
370
     0
100
AcDbBlockBegin
  2
Feature Solid_26
 70
     0
 10
0.0
 20
0.0
 30
0.0
  3
Feature Solid_26
  1

  0
INSERT
  5
7150D
330
717E8
100
AcDbEntity
  8
Level 26
 62
     7
370
    13
100
AcDbBlockReference
  2
UNITE_10
 10
0.0
 20
0.0
 30
0.0
  0
ENDBLK
  5
717EA
330
717E8
100
AcDbEntity
  8
0
 62
    98
370
     0
100
AcDbBlockEnd
  0
BLOCK
  5
717EC
330
717EB
100
AcDbEntity
  8
0
 62
    98
370
     0
100
AcDbBlockBegin
  2
UNITE_10
 70
     0
 10
0.0
 20
0.0
 30
0.0
  3
UNITE_10
  1

  0
INSERT
  5
71510
330
717EB
100
AcDbEntity
  8
Level 26
 62
     7
370
    13
100
AcDbBlockReference
  2
Feature Solid_27
 10
0.0
 20
0.0
 30
0.0
  0
ENDBLK
  5
717ED
330
717EB
100
AcDbEntity
  8
0
 62
    98
370
     0
100
AcDbBlockEnd
  0
BLOCK
  5
717EF
330
717EE
100
AcDbEntity
  8
0
 62
    98
370
     0
100
AcDbBlockBegin
  2
Feature Solid_27
 70
     0
 10
0.0
 20
0.0
 30
0.0
  3
Feature Solid_27
  1

  0
INSERT
  5
71511
330
717EE
100
AcDbEntity
  8
Level 26
 62
     7
370
    13
100
AcDbBlockReference
  2
ROUNDE_8
 10
0.0
 20
0.0
 30
0.0
  0
ENDBLK
  5
717F0
330
717EE
100
AcDbEntity
  8
0
 62
    98
370
     0
100
AcDbBlockEnd
  0
BLOCK
  5
717F2
330
717F1
100
AcDbEntity
  8
0
 62
    98
370
     0
100
AcDbBlockBegin
  2
ROUNDE_8
 70
     0
 10
0.0
 20
0.0
 30
0.0
  3
ROUNDE_8
  1

  0
INSERT
  5
71512
330
717F1
100
AcDbEntity
  8
Level 26
 62
     7
370
    13
100
AcDbBlockReference
  2
ROUNDE_9
 10
0.0
 20
0.0
 30
0.0
  0
SPLINE
  5
7154A
330
717F1
100
AcDbEntity
  8
Level 26
 62
     7
370
    13
100
AcDbSpline
210
0.0
220
0.0
230
1.0
 70
     8
 71
     3
 72
    24
 73
    20
 74
     0
 42
0.000000001
 43
0.0000000001
 40
0.0
 40
0.0
 40
0.0
 40
0.0
 40
0.125
 40
0.125
 40
0.25
 40
0.25
 40
0.3749999999999999
 40
0.3749999999999999
 40
0.5
 40
0.5
 40
0.625
 40
0.625
 40
0.7499999999999999
 40
0.7499999999999999
 40
0.8749999999999998
 40
0.8749999999999998
 40
0.9374999999999998
 40
0.9374999999999998
 40
1.0
 40
1.0
 40
1.0
 40
1.0
 10
456.6829942165715
 20
423.1243130449688
 30
0.0
 10
457.2080727490935
 20
423.1243130449688
 30
0.0
 10
457.7503022684021
 20
422.9598232381081
 30
0.0
 10
458.8917351729874
 20
422.3156683920733
 30
0.0
 10
459.4959298922754
 20
421.8302430823518
 30
0.0
 10
460.7587744140252
 20
420.5542478059714
 30
0.0
 10
461.4091671038157
 20
419.7741014337839
 30
0.0
 10
462.7674968683971
 20
417.9446469277141
 30
0.0
 10
463.4827609682343
 20
416.8820458409522
 30
0.0
 10
464.9567423978577
 20
414.5642071482611
 30
0.0
 10
465.7151753534543
 20
413.3098279182349
 30
0.0
 10
467.3302737274402
 20
410.6444333149865
 30
0.0
 10
468.191019131353
 20
409.2226473879218
 30
0.0
 10
470.0656896204399
 20
406.3901442892029
 30
0.0
 10
471.0906243135523
 20
404.9510487405322
 30
0.0
 10
472.9175112310037
 20
402.97458543751
 30
0.0
 10
473.5691899666561
 20
402.3557925788423
 30
0.0
 10
475.0015484643028
 20
401.2481628139093
 30
0.0
 10
475.7866584879113
 20
400.7612102898133
 30
0.0
 10
476.6218540989038
 20
400.3809312772859
 30
0.0
  0
LINE
  5
7154D
330
717F1
100
AcDbEntity
  8
Level 26
 62
     7
370
    13
100
AcDbLine
 10
456.682994
 20
423.124313
 30
0.0
 11
456.014547
 21
423.124313
 31
0.0
  0
SPLINE
  5
7154E
330
717F1
100
AcDbEntity
  8
Level 26
 62
     7
370
    13
100
AcDbSpline
210
0.0
220
0.0
230
1.0
 70
     8
 71
     3
 72
    22
 73
    18
 74
     0
 42
0.000000001
 43
0.0000000001
 40
0.0
 40
0.0
 40
0.0
 40
0.0
 40
0.125
 40
0.125
 40
0.25
 40
0.25
 40
0.375
 40
0.375
 40
0.5
 40
0.5
 40
0.625
 40
0.625
 40
0.75
 40
0.75
 40
0.875
 40
0.875
 40
1.0
 40
1.0
 40
1.0
 40
1.0
 10
489.8565045954742
 20
408.021960304115
 30
0.0
 10
487.9717771789803
 20
408.859838799603
 30
0.0
 10
486.1646655330257
 20
409.799786021229
 30
0.0
 10
482.7039269595709
 20
411.8655497180671
 30
0.0
 10
481.0313349528461
 20
413.007642542198
 30
0.0
 10
477.9704745876443
 20
415.3594999063275
 30
0.0
 10
476.5744636353323
 20
416.5700433971137
 30
0.0
 10
474.0286847441037
 20
419.0078127349875
 30
0.0
 10
472.8903689732737
 20
420.2269506520479
 30
0.0
 10
470.9356939692403
 20
422.4989538075515
 30
0.0
 10
470.0952458563827
 20
423.578142215002
 30
0.0
 10
468.6960304522644
 20
425.4930666832474
 30
0.0
 10
468.1393285556462
 20
426.3232192647828
 30
0.0
 10
467.2557146043339
 20
427.6951626717932
 30
0.0
 10
466.9328674820302
 20
428.2309583048932
 30
0.0
 10
466.5112609356921
 20
428.9410008785798
 30
0.0
 10
466.4068517018342
 20
429.1243130449429
 30
0.0
 10
466.4068517018342
 20
429.1243130449429
 30
0.0
  0
LINE
  5
71551
330
717F1
100
AcDbEntity
  8
Level 26
 62
     7
370
    13
100
AcDbLine
 10
456.014547
 20
423.124313
 30
0.0
 11
466.406852
 21
429.124313
 31
0.0
  0
LINE
  5
71552
330
717F1
100
AcDbEntity
  8
Level 26
 62
     7
370
    13
100
AcDbLine
 10
476.621854
 20
400.380931
 30
0.0
 11
489.856505
 21
408.02196
 31
0.0
  0
ENDBLK
  5
717F3
330
717F1
100
AcDbEntity
  8
0
 62
    98
370
     0
100
AcDbBlockEnd
  0
BLOCK
  5
717F5
330
717F4
100
AcDbEntity
  8
0
 62
    98
370
     0
100
AcDbBlockBegin
  2
ROUNDE_9
 70
     0
 10
0.0
 20
0.0
 30
0.0
  3
ROUNDE_9
  1

  0
INSERT
  5
71513
330
717F4
100
AcDbEntity
  8
Level 26
 62
     7
370
    13
100
AcDbBlockReference
  2
ROUNDE_10
 10
0.0
 20
0.0
 30
0.0
  0
SPLINE
  5
71538
330
717F4
100
AcDbEntity
  8
Level 26
 62
     7
370
    13
100
AcDbSpline
210
0.0
220
0.0
230
1.0
 70
     8
 71
     3
 72
    10
 73
     6
 74
     0
 42
0.000000001
 43
0.0000000001
 40
0.0
 40
0.0
 40
0.0
 40
0.0
 40
0.5
 40
0.5
 40
1.0
 40
1.0
 40
1.0
 40
1.0
 10
502.7160304719875
 20
393.1243130449689
 30
0.0
 10
498.2114556221076
 20
393.5977371803151
 30
0.0
 10
493.7289634592882
 20
394.4547642636226
 30
0.0
 10
485.0015468048834
 20
396.9113626663311
 30
0.0
 10
480.7433169348839
 20
398.5043579370863
 30
0.0
 10
476.6218540988992
 20
400.3809312772859
 30
0.0
  0
SPLINE
  5
7153B
330
717F4
100
AcDbEntity
  8
Level 26
 62
     7
370
    13
100
AcDbSpline
210
0.0
220
0.0
230
1.0
 70
    24
 71
     3
 72
    16
 73
    12
 74
     0
 42
0.000000001
 43
0.0000000001
 40
0.0
 40
0.0
 40
0.0
 40
0.0
 40
0.2499999999999999
 40
0.2499999999999999
 40
0.3749999999999998
 40
0.3749999999999998
 40
0.4999999999999999
 40
0.4999999999999999
 40
0.75
 40
0.75
 40
1.0
 40
1.0
 40
1.0
 40
1.0
 10
456.6829942165715
 20
423.1243130449688
 30
0.0
 10
452.965969727673
 20
423.1243130449688
 30
0.0
 10
449.358522316669
 20
423.1243130449688
 30
0.0
 10
444.2565151951815
 20
423.1243130449688
 30
0.0
 10
442.6028904836382
 20
423.1243130449688
 30
0.0
 10
439.4002785285421
 20
423.1243130449688
 30
0.0
 10
437.8441332426377
 20
423.1243130449688
 30
0.0
 10
433.4262667612185
 20
423.1243130449688
 30
0.0
 10
430.7942900366963
 20
423.1243130449688
 30
0.0
 10
426.4705003483006
 20
423.1243130449688
 30
0.0
 10
424.7345310202524
 20
423.1243130449688
 30
0.0
 10
423.5608713618334
 20
423.1243130449688
 30
0.0
  0
SPLINE
  5
7153E
330
717F4
100
AcDbEntity
  8
Level 26
 62
     7
370
    13
100
AcDbSpline
210
0.0
220
0.0
230
1.0
 70
     8
 71
     3
 72
    18
 73
    14
 74
     0
 42
0.000000001
 43
0.0000000001
 40
0.0
 40
0.0
 40
0.0
 40
0.0
 40
0.2500000000000014
 40
0.2500000000000014
 40
0.5000000000000029
 40
0.5000000000000029
 40
0.6250000000000022
 40
0.6250000000000022
 40
0.7500000000000015
 40
0.7500000000000015
 40
0.8750000000000007
 40
0.8750000000000007
 40
1.0
 40
1.0
 40
1.0
 40
1.0
 10
423.5608713618334
 20
423.1243130449688
 30
0.0
 10
423.914460954944
 20
423.1243130449688
 30
0.0
 10
424.3980527694485
 20
423.12697633373
 30
0.0
 10
425.4779308582366
 20
423.2111255445443
 30
0.0
 10
426.0740761224049
 20
423.2873640732354
 30
0.0
 10
426.8755552375512
 20
423.6686182668954
 30
0.0
 10
427.1313786393655
 20
423.844350969076
 30
0.0
 10
427.5744645896791
 20
424.3490016252398
 30
0.0
 10
427.768247718681
 20
424.6798281128481
 30
0.0
 10
427.9670164336663
 20
425.5598100078628
 30
0.0
 10
427.9479865616033
 20
426.1263917067313
 30
0.0
 10
427.5180124906245
 20
427.2256437047198
 30
0.0
 10
427.138222313892
 20
427.7192244501224
 30
0.0
 10
426.7357752694245
 20
428.1243130449688
 30
0.0
  0
SPLINE
  5
71541
330
717F4
100
AcDbEntity
  8
Level 26
 62
     7
370
    13
100
AcDbSpline
210
0.0
220
0.0
230
1.0
 70
     8
 71
     3
 72
    18
 73
    14
 74
     0
 42
0.000000001
 43
0.0000000001
 40
0.0
 40
0.0
 40
0.0
 40
0.0
 40
0.2500000000000001
 40
0.2500000000000001
 40
0.5000000000000001
 40
0.5000000000000001
 40
0.6250000000000001
 40
0.6250000000000001
 40
0.7500000000000002
 40
0.7500000000000002
 40
0.8750000000000001
 40
0.8750000000000001
 40
1.0
 40
1.0
 40
1.0
 40
1.0
 10
437.9573278754539
 20
434.7159812381451
 30
0.0
 10
438.8086639282991
 20
432.17487240966
 30
0.0
 10
439.6436503257965
 20
429.6093774769192
 30
0.0
 10
441.2299719601691
 20
424.5200006965023
 30
0.0
 10
441.9808878448916
 20
421.9865482909717
 30
0.0
 10
443.0617130770627
 20
418.372902211025
 30
0.0
 10
443.4113299915146
 20
417.2139356377274
 30
0.0
 10
444.1070001432802
 20
415.0446245716288
 30
0.0
 10
444.4590055944015
 20
414.0168533700034
 30
0.0
 10
445.1763757320809
 20
412.2524799226148
 30
0.0
 10
445.5436986110414
 20
411.5088923829348
 30
0.0
 10
446.3474171248064
 20
410.4122476450575
 30
0.0
 10
446.7621684324014
 20
410.0936167032496
 30
0.0
 10
447.2888478209082
 20
409.8949786311796
 30
0.0
  0
SPLINE
  5
71544
330
717F4
100
AcDbEntity
  8
Level 26
 62
     7
370
    13
100
AcDbSpline
210
0.0
220
0.0
230
1.0
 70
     8
 71
     3
 72
    20
 73
    16
 74
     0
 42
0.000000001
 43
0.0000000001
 40
0.0
 40
0.0
 40
0.0
 40
0.0
 40
0.0624999999999998
 40
0.0624999999999998
 40
0.1249999999999996
 40
0.1249999999999996
 40
0.2499999999999996
 40
0.2499999999999996
 40
0.3749999999999997
 40
0.3749999999999997
 40
0.4999999999999999
 40
0.4999999999999999
 40
0.75
 40
0.75
 40
1.0
 40
1.0
 40
1.0
 40
1.0
 10
447.2888478209082
 20
409.8949786311796
 30
0.0
 10
447.8005027065295
 20
409.7020070772096
 30
0.0
 10
448.5185766168571
 20
409.4293005605527
 30
0.0
 10
450.1613125157039
 20
408.7964160625301
 30
0.0
 10
451.1009115533321
 20
408.4305234041807
 30
0.0
 10
454.1342073460597
 20
407.2356252777872
 30
0.0
 10
456.3823413292886
 20
406.3318616995511
 30
0.0
 10
460.9535678625208
 20
404.4946355635897
 30
0.0
 10
463.3210160971962
 20
403.5448065614027
 30
0.0
 10
468.0742445815438
 20
401.6964419574474
 30
0.0
 10
470.4637302419575
 20
400.7966453446374
 30
0.0
 10
477.680521599166
 20
398.2422376221043
 30
0.0
 10
482.5569246413897
 20
396.7372545389831
 30
0.0
 10
492.4912741835275
 20
394.3936466169134
 30
0.0
 10
497.5490352956433
 20
393.5524528358578
 30
0.0
 10
502.7160304719902
 20
393.1243130449689
 30
0.0
  0
ELLIPSE
  5
71547
330
717F4
100
AcDbEntity
  8
Level 26
 62
     7
370
    13
100
AcDbEllipse
 10
423.560871
 20
393.124313
 30
0.0
 11
0.0
 21
30.00000000000002
 31
0.0
210
0.0
220
0.0
230
-1.0
 40
0.9539045718304089
 41
0.0000000000000098
 42
0.9775902890469856
  0
ELLIPSE
  5
71548
330
717F4
100
AcDbEntity
  8
Level 26
 62
     7
370
    13
100
AcDbEllipse
 10
413.913828
 20
428.124313
 30
0.0
 11
27.77666546375664
 21
11.33388087614077
 31
0.0
210
0.0
220
0.0
230
0.9999999999999998
 40
0.175821724911404
 41
-1.16394104508646
 42
-0.6004811796356302
  0
ELLIPSE
  5
71549
330
717F4
100
AcDbEntity
  8
Level 26
 62
     7
370
    13
100
AcDbEllipse
 10
419.174597
 20
402.344171
 30
0.0
 11
29.8659668357414
 21
2.832670995084697
 31
0.0
210
0.0
220
0.0
230
1.0
 40
0.7542389838019891
 41
0.5404702887457092
 42
1.214093718638255
  0
ENDBLK
  5
717F6
330
717F4
100
AcDbEntity
  8
0
 62
    98
370
     0
100
AcDbBlockEnd
  0
BLOCK
  5
717F8
330
717F7
100
AcDbEntity
  8
0
 62
    98
370
     0
100
AcDbBlockBegin
  2
ROUNDE_10
 70
     0
 10
0.0
 20
0.0
 30
0.0
  3
ROUNDE_10
  1

  0
INSERT
  5
71514
330
717F7
100
AcDbEntity
  8
Level 26
 62
     7
370
    13
100
AcDbBlockReference
  2
SUBTRC_8
 10
0.0
 20
0.0
 30
0.0
  0
POINT
  5
71532
330
717F7
100
AcDbEntity
  8
Level 26
 62
     7
370
    13
100
AcDbPoint
 10
417.574147
 20
428.124313
 30
0.0
  0
LINE
  5
71533
330
717F7
100
AcDbEntity
  8
Level 26
 62
     7
370
    13
100
AcDbLine
 10
426.735775
 20
428.124313
 30
0.0
 11
417.574147
 21
428.124313
 31
0.0
  0
LINE
  5
71534
330
717F7
100
AcDbEntity
  8
Level 26
 62
     7
370
    13
100
AcDbLine
 10
423.560871
 20
423.124313
 30
0.0
 11
422.574147
 21
423.124313
 31
0.0
  0
POINT
  5
71535
330
717F7
100
AcDbEntity
  8
Level 26
 62
     7
370
    13
100
AcDbPoint
 10
422.574147
 20
423.124313
 30
0.0
  0
ARC
  5
71536
330
717F7
100
AcDbEntity
  8
Level 26
 62
     7
370
    13
100
AcDbCircle
 10
422.574147
 20
428.124313
 30
0.0
 40
5.0
100
AcDbArc
 50
180.0
 51
270.0
  0
ARC
  5
71537
330
717F7
100
AcDbEntity
  8
Level 26
 62
     7
370
    13
100
AcDbCircle
 10
422.574147
 20
428.124313
 30
0.0
 40
5.000000000000001
100
AcDbArc
 50
180.0
 51
270.0
  0
ENDBLK
  5
717F9
330
717F7
100
AcDbEntity
  8
0
 62
    98
370
     0
100
AcDbBlockEnd
  0
BLOCK
  5
717FB
330
717FA
100
AcDbEntity
  8
0
 62
    98
370
     0
100
AcDbBlockBegin
  2
SUBTRC_8
 70
     0
 10
0.0
 20
0.0
 30
0.0
  3
SUBTRC_8
  1

  0
INSERT
  5
71517
330
717FA
100
AcDbEntity
  8
Level 26
 62
     7
370
    13
100
AcDbBlockReference
  2
Feature Solid_28
 10
0.0
 20
0.0
 30
0.0
  0
ENDBLK
  5
717FC
330
717FA
100
AcDbEntity
  8
0
 62
    98
370
     0
100
AcDbBlockEnd
  0
BLOCK
  5
717FE
330
717FD
100
AcDbEntity
  8
0
 62
    98
370
     0
100
AcDbBlockBegin
  2
Feature Solid_28
 70
     0
 10
0.0
 20
0.0
 30
0.0
  3
Feature Solid_28
  1

  0
INSERT
  5
71518
330
717FD
100
AcDbEntity
  8
Level 26
 62
     7
370
    13
100
AcDbBlockReference
  2
SUBTRC_9
 10
0.0
 20
0.0
 30
0.0
  0
ENDBLK
  5
717FF
330
717FD
100
AcDbEntity
  8
0
 62
    98
370
     0
100
AcDbBlockEnd
  0
BLOCK
  5
71801
330
71800
100
AcDbEntity
  8
0
 62
    98
370
     0
100
AcDbBlockBegin
  2
SUBTRC_9
 70
     0
 10
0.0
 20
0.0
 30
0.0
  3
SUBTRC_9
  1

  0
INSERT
  5
7151B
330
71800
100
AcDbEntity
  8
Level 26
 62
     7
370
    13
100
AcDbBlockReference
  2
Feature Solid_29
 10
0.0
 20
0.0
 30
0.0
  0
ENDBLK
  5
71802
330
71800
100
AcDbEntity
  8
0
 62
    98
370
     0
100
AcDbBlockEnd
  0
BLOCK
  5
71804
330
71803
100
AcDbEntity
  8
0
 62
    98
370
     0
100
AcDbBlockBegin
  2
Feature Solid_29
 70
     0
 10
0.0
 20
0.0
 30
0.0
  3
Feature Solid_29
  1

  0
INSERT
  5
7151C
330
71803
100
AcDbEntity
  8
Level 26
 62
     7
370
    13
100
AcDbBlockReference
  2
UNITE_11
 10
0.0
 20
0.0
 30
0.0
  0
ENDBLK
  5
71805
330
71803
100
AcDbEntity
  8
0
 62
    98
370
     0
100
AcDbBlockEnd
  0
BLOCK
  5
71807
330
71806
100
AcDbEntity
  8
0
 62
    98
370
     0
100
AcDbBlockBegin
  2
UNITE_11
 70
     0
 10
0.0
 20
0.0
 30
0.0
  3
UNITE_11
  1

  0
INSERT
  5
7151D
330
71806
100
AcDbEntity
  8
Level 26
 62
     7
370
    13
100
AcDbBlockReference
  2
Feature Solid_30
 10
0.0
 20
0.0
 30
0.0
  0
INSERT
  5
7152F
330
71806
100
AcDbEntity
  8
Level 26
 62
     7
370
    13
100
AcDbBlockReference
  2
Feature Solid_35
 10
0.0
 20
0.0
 30
0.0
  0
ENDBLK
  5
71808
330
71806
100
AcDbEntity
  8
0
 62
    98
370
     0
100
AcDbBlockEnd
  0
BLOCK
  5
7180A
330
71809
100
AcDbEntity
  8
0
 62
    98
370
     0
100
AcDbBlockBegin
  2
Feature Solid_30
 70
     0
 10
0.0
 20
0.0
 30
0.0
  3
Feature Solid_30
  1

  0
INSERT
  5
7151E
330
71809
100
AcDbEntity
  8
Level 26
 62
     7
370
    13
100
AcDbBlockReference
  2
SUBTRC_10
 10
0.0
 20
0.0
 30
0.0
  0
ENDBLK
  5
7180B
330
71809
100
AcDbEntity
  8
0
 62
    98
370
     0
100
AcDbBlockEnd
  0
BLOCK
  5
7180D
330
7180C
100
AcDbEntity
  8
0
 62
    98
370
     0
100
AcDbBlockBegin
  2
SUBTRC_10
 70
     0
 10
0.0
 20
0.0
 30
0.0
  3
SUBTRC_10
  1

  0
INSERT
  5
71521
330
7180C
100
AcDbEntity
  8
Level 26
 62
     7
370
    13
100
AcDbBlockReference
  2
Feature Solid_31
 10
0.0
 20
0.0
 30
0.0
  0
ENDBLK
  5
7180E
330
7180C
100
AcDbEntity
  8
0
 62
    98
370
     0
100
AcDbBlockEnd
  0
BLOCK
  5
71810
330
7180F
100
AcDbEntity
  8
0
 62
    98
370
     0
100
AcDbBlockBegin
  2
Feature Solid_31
 70
     0
 10
0.0
 20
0.0
 30
0.0
  3
Feature Solid_31
  1

  0
INSERT
  5
71522
330
7180F
100
AcDbEntity
  8
Level 26
 62
     7
370
    13
100
AcDbBlockReference
  2
ROUNDE_11
 10
0.0
 20
0.0
 30
0.0
  0
ENDBLK
  5
71811
330
7180F
100
AcDbEntity
  8
0
 62
    98
370
     0
100
AcDbBlockEnd
  0
BLOCK
  5
71813
330
71812
100
AcDbEntity
  8
0
 62
    98
370
     0
100
AcDbBlockBegin
  2
ROUNDE_11
 70
     0
 10
0.0
 20
0.0
 30
0.0
  3
ROUNDE_11
  1

  0
INSERT
  5
71523
330
71812
100
AcDbEntity
  8
Level 26
 62
     7
370
    13
100
AcDbBlockReference
  2
SUBTRC_11
 10
0.0
 20
0.0
 30
0.0
  0
ENDBLK
  5
71814
330
71812
100
AcDbEntity
  8
0
 62
    98
370
     0
100
AcDbBlockEnd
  0
BLOCK
  5
71816
330
71815
100
AcDbEntity
  8
0
 62
    98
370
     0
100
AcDbBlockBegin
  2
SUBTRC_11
 70
     0
 10
0.0
 20
0.0
 30
0.0
  3
SUBTRC_11
  1

  0
INSERT
  5
71526
330
71815
100
AcDbEntity
  8
Level 26
 62
     7
370
    13
100
AcDbBlockReference
  2
Feature Solid_32
 10
0.0
 20
0.0
 30
0.0
  0
ENDBLK
  5
71817
330
71815
100
AcDbEntity
  8
0
 62
    98
370
     0
100
AcDbBlockEnd
  0
BLOCK
  5
71819
330
71818
100
AcDbEntity
  8
0
 62
    98
370
     0
100
AcDbBlockBegin
  2
Feature Solid_32
 70
     0
 10
0.0
 20
0.0
 30
0.0
  3
Feature Solid_32
  1

  0
INSERT
  5
71527
330
71818
100
AcDbEntity
  8
Level 26
 62
     7
370
    13
100
AcDbBlockReference
  2
UNITE_12
 10
0.0
 20
0.0
 30
0.0
  0
ENDBLK
  5
7181A
330
71818
100
AcDbEntity
  8
0
 62
    98
370
     0
100
AcDbBlockEnd
  0
BLOCK
  5
7181C
330
7181B
100
AcDbEntity
  8
0
 62
    98
370
     0
100
AcDbBlockBegin
  2
UNITE_12
 70
     0
 10
0.0
 20
0.0
 30
0.0
  3
UNITE_12
  1

  0
INSERT
  5
71528
330
7181B
100
AcDbEntity
  8
Level 26
 62
     7
370
    13
100
AcDbBlockReference
  2
Feature Solid_33
 10
0.0
 20
0.0
 30
0.0
  0
INSERT
  5
7152C
330
7181B
100
AcDbEntity
  8
Level 26
 62
     7
370
    13
100
AcDbBlockReference
  2
Feature Solid_34
 10
68.949834
 20
965.19846
 30
0.0
 50
270.0
  0
ENDBLK
  5
7181D
330
7181B
100
AcDbEntity
  8
0
 62
    98
370
     0
100
AcDbBlockEnd
  0
BLOCK
  5
7181F
330
7181E
100
AcDbEntity
  8
0
 62
    98
370
     0
100
AcDbBlockBegin
  2
Feature Solid_33
 70
     0
 10
0.0
 20
0.0
 30
0.0
  3
Feature Solid_33
  1

  0
INSERT
  5
71529
330
7181E
100
AcDbEntity
  8
Level 26
 62
     7
370
    13
100
AcDbBlockReference
  2
SLAB_2
 10
0.0
 20
0.0
 30
0.0
  0
ENDBLK
  5
71820
330
7181E
100
AcDbEntity
  8
0
 62
    98
370
     0
100
AcDbBlockEnd
  0
BLOCK
  5
71822
330
71821
100
AcDbEntity
  8
0
 62
    98
370
     0
100
AcDbBlockBegin
  2
SLAB_2
 70
     0
 10
0.0
 20
0.0
 30
0.0
  3
SLAB_2
  1

  0
LINE
  5
7152A
330
71821
100
AcDbEntity
  8
Level 26
 62
     7
370
    13
100
AcDbLine
 10
422.574147
 20
423.124313
 30
0.0
 11
456.014547
 21
423.124313
 31
0.0
  0
POINT
  5
7152B
330
71821
100
AcDbEntity
  8
Level 26
 62
     7
370
    13
100
AcDbPoint
 10
456.014547
 20
423.124313
 30
0.0
  0
ENDBLK
  5
71823
330
71821
100
AcDbEntity
  8
0
 62
    98
370
     0
100
AcDbBlockEnd
  0
BLOCK
  5
71825
330
71824
100
AcDbEntity
  8
0
 62
    98
370
     0
100
AcDbBlockBegin
  2
Feature Solid_34
 70
     0
 10
0.0
 20
0.0
 30
0.0
  3
Feature Solid_34
  1

  0
INSERT
  5
7152D
330
71824
100
AcDbEntity
  8
Level 26
 62
     7
370
    13
100
AcDbBlockReference
  2
CONE_3
 10
0.0
 20
0.0
 30
0.0
  0
ENDBLK
  5
71826
330
71824
100
AcDbEntity
  8
0
 62
    98
370
     0
100
AcDbBlockEnd
  0
BLOCK
  5
71828
330
71827
100
AcDbEntity
  8
0
 62
    98
370
     0
100
AcDbBlockBegin
  2
CONE_3
 70
     0
 10
0.0
 20
0.0
 30
0.0
  3
CONE_3
  1

  0
LINE
  5
7152E
330
71827
100
AcDbEntity
  8
Level 26
 62
     7
370
    13
100
AcDbLine
 10
542.074147
 20
387.064713
 30
0.0
 11
536.074147
 21
397.457017
 31
0.0
  0
ENDBLK
  5
71829
330
71827
100
AcDbEntity
  8
0
 62
    98
370
     0
100
AcDbBlockEnd
  0
BLOCK
  5
7182B
330
7182A
100
AcDbEntity
  8
0
 62
    98
370
     0
100
AcDbBlockBegin
  2
Feature Solid_35
 70
     0
 10
0.0
 20
0.0
 30
0.0
  3
Feature Solid_35
  1

  0
INSERT
  5
71530
330
7182A
100
AcDbEntity
  8
Level 26
 62
     7
370
    13
100
AcDbBlockReference
  2
DDREVL_3
 10
0.0
 20
0.0
 30
0.0
  0
ENDBLK
  5
7182C
330
7182A
100
AcDbEntity
  8
0
 62
    98
370
     0
100
AcDbBlockEnd
  0
BLOCK
  5
7182E
330
7182D
100
AcDbEntity
  8
0
 62
    98
370
     0
100
AcDbBlockBegin
  2
DDREVL_3
 70
     0
 10
0.0
 20
0.0
 30
0.0
  3
DDREVL_3
  1

  0
POINT
  5
71531
330
7182D
100
AcDbEntity
  8
Level 26
 62
     7
370
    13
100
AcDbPoint
 10
466.406852
 20
429.124313
 30
0.0
  0
ENDBLK
  5
7182F
330
7182D
100
AcDbEntity
  8
0
 62
    98
370
     0
100
AcDbBlockEnd
  0
BLOCK
  5
71831
330
71830
100
AcDbEntity
  8
0
 62
    98
370
     0
100
AcDbBlockBegin
  2
Feature Solid_36
 70
     0
 10
0.0
 20
0.0
 30
0.0
  3
Feature Solid_36
  1

  0
INSERT
  5
71556
330
71830
100
AcDbEntity
  8
Level 26
 62
     7
370
    13
100
AcDbBlockReference
  2
UNITE_13
 10
-745.63931
 20
909.248626
 30
0.0
 50
180.0
210
0.0
220
0.0
230
-1.0
  0
ENDBLK
  5
71832
330
71830
100
AcDbEntity
  8
0
 62
    98
370
     0
100
AcDbBlockEnd
  0
BLOCK
  5
71834
330
71833
100
AcDbEntity
  8
0
 62
    98
370
     0
100
AcDbBlockBegin
  2
UNITE_13
 70
     0
 10
0.0
 20
0.0
 30
0.0
  3
UNITE_13
  1

  0
INSERT
  5
71557
330
71833
100
AcDbEntity
  8
Level 26
 62
     7
370
    13
100
AcDbBlockReference
  2
Feature Solid_37
 10
0.0
 20
0.0
 30
0.0
  0
INSERT
  5
7155F
330
71833
100
AcDbEntity
  8
Level 26
 62
     7
370
    13
100
AcDbBlockReference
  2
Feature Solid_38
 10
0.0
 20
0.0
 30
0.0
  0
ENDBLK
  5
71835
330
71833
100
AcDbEntity
  8
0
 62
    98
370
     0
100
AcDbBlockEnd
  0
BLOCK
  5
71837
330
71836
100
AcDbEntity
  8
0
 62
    98
370
     0
100
AcDbBlockBegin
  2
Feature Solid_37
 70
     0
 10
0.0
 20
0.0
 30
0.0
  3
Feature Solid_37
  1

  0
INSERT
  5
71558
330
71836
100
AcDbEntity
  8
Level 26
 62
     7
370
    13
100
AcDbBlockReference
  2
DDREVL_4
 10
0.0
 20
0.0
 30
0.0
  0
ENDBLK
  5
71838
330
71836
100
AcDbEntity
  8
0
 62
    98
370
     0
100
AcDbBlockEnd
  0
BLOCK
  5
7183A
330
71839
100
AcDbEntity
  8
0
 62
    98
370
     0
100
AcDbBlockBegin
  2
DDREVL_4
 70
     0
 10
0.0
 20
0.0
 30
0.0
  3
DDREVL_4
  1

  0
ARC
  5
71559
330
71839
100
AcDbEntity
  8
Level 26
 62
     7
370
    13
100
AcDbCircle
 10
-510.574147
 20
454.624313
 30
0.0
 40
51.00000000000336
210
0.0
220
0.0
230
-1.0
100
AcDbArc
 50
0.0
 51
359.999994
  0
ARC
  5
7155A
330
71839
100
AcDbEntity
  8
Level 26
 62
     7
370
    13
100
AcDbCircle
 10
-510.574147
 20
454.624313
 30
0.0
 40
73.31370849899091
210
0.0
220
0.0
230
-1.0
100
AcDbArc
 50
0.0
 51
359.999994
  0
LINE
  5
7155B
330
71839
100
AcDbEntity
  8
Level 26
 62
     7
370
    13
100
AcDbLine
 10
510.574147
 20
505.624313
 30
0.0
 11
510.574147
 21
527.938022
 31
0.0
  0
LINE
  5
7155C
330
71839
100
AcDbEntity
  8
Level 26
 62
     7
370
    13
100
AcDbLine
 10
561.574147
 20
454.624313
 30
0.0
 11
583.887856
 21
454.624313
 31
0.0
  0
LINE
  5
7155D
330
71839
100
AcDbEntity
  8
Level 26
 62
     7
370
    13
100
AcDbLine
 10
510.574147
 20
403.624313
 30
0.0
 11
510.574147
 21
381.310605
 31
0.0
  0
LINE
  5
7155E
330
71839
100
AcDbEntity
  8
Level 26
 62
     7
370
    13
100
AcDbLine
 10
459.574147
 20
454.624313
 30
0.0
 11
437.260439
 21
454.624313
 31
0.0
  0
ENDBLK
  5
7183B
330
71839
100
AcDbEntity
  8
0
 62
    98
370
     0
100
AcDbBlockEnd
  0
BLOCK
  5
7183D
330
7183C
100
AcDbEntity
  8
0
 62
    98
370
     0
100
AcDbBlockBegin
  2
Feature Solid_38
 70
     0
 10
0.0
 20
0.0
 30
0.0
  3
Feature Solid_38
  1

  0
INSERT
  5
71560
330
7183C
100
AcDbEntity
  8
Level 26
 62
     7
370
    13
100
AcDbBlockReference
  2
ROUNDE_12
 10
0.0
 20
0.0
 30
0.0
  0
ENDBLK
  5
7183E
330
7183C
100
AcDbEntity
  8
0
 62
    98
370
     0
100
AcDbBlockEnd
  0
BLOCK
  5
71840
330
7183F
100
AcDbEntity
  8
0
 62
    98
370
     0
100
AcDbBlockBegin
  2
ROUNDE_12
 70
     0
 10
0.0
 20
0.0
 30
0.0
  3
ROUNDE_12
  1

  0
INSERT
  5
71561
330
7183F
100
AcDbEntity
  8
Level 26
 62
     7
370
    13
100
AcDbBlockReference
  2
ROUNDE_13
 10
0.0
 20
0.0
 30
0.0
  0
SPLINE
  5
715BD
330
7183F
100
AcDbEntity
  8
Level 26
 62
     7
370
    13
100
AcDbSpline
210
0.0
220
0.0
230
1.0
 70
     8
 71
     3
 72
    24
 73
    20
 74
     0
 42
0.000000001
 43
0.0000000001
 40
0.0
 40
0.0
 40
0.0
 40
0.0
 40
0.1249999999999999
 40
0.1249999999999999
 40
0.2499999999999997
 40
0.2499999999999997
 40
0.3749999999999996
 40
0.3749999999999996
 40
0.4999999999999995
 40
0.4999999999999995
 40
0.6249999999999993
 40
0.6249999999999993
 40
0.7499999999999992
 40
0.7499999999999992
 40
0.8749999999999989
 40
0.8749999999999989
 40
0.9374999999999996
 40
0.9374999999999996
 40
1.0
 40
1.0
 40
1.0
 40
1.0
 10
456.6829942165715
 20
423.1243130449727
 30
0.0
 10
457.2080727490936
 20
423.1243130449727
 30
0.0
 10
457.7503022684017
 20
422.9598232381119
 30
0.0
 10
458.891735172987
 20
422.3156683920808
 30
0.0
 10
459.4959298922754
 20
421.8302430823594
 30
0.0
 10
460.7587744140253
 20
420.554247805979
 30
0.0
 10
461.4091671038158
 20
419.7741014337878
 30
0.0
 10
462.7674968683966
 20
417.9446469277183
 30
0.0
 10
463.4827609682344
 20
416.8820458409561
 30
0.0
 10
464.9567423978578
 20
414.564207148265
 30
0.0
 10
465.7151753534543
 20
413.3098279182388
 30
0.0
 10
467.3302737274402
 20
410.6444333149904
 30
0.0
 10
468.1910191313531
 20
409.2226473879293
 30
0.0
 10
470.0656896204399
 20
406.3901442892103
 30
0.0
 10
471.0906243135519
 20
404.9510487405362
 30
0.0
 10
472.9175112310038
 20
402.9745854375139
 30
0.0
 10
473.5691899666562
 20
402.3557925788502
 30
0.0
 10
475.0015484643029
 20
401.2481628139132
 30
0.0
 10
475.7866584879113
 20
400.7612102898171
 30
0.0
 10
476.6218540989035
 20
400.3809312772903
 30
0.0
  0
LINE
  5
715C0
330
7183F
100
AcDbEntity
  8
Level 26
 62
     7
370
    13
100
AcDbLine
 10
456.682994
 20
423.124313
 30
0.0
 11
456.014547
 21
423.124313
 31
0.0
  0
SPLINE
  5
715C1
330
7183F
100
AcDbEntity
  8
Level 26
 62
     7
370
    13
100
AcDbSpline
210
0.0
220
0.0
230
1.0
 70
     8
 71
     3
 72
    22
 73
    18
 74
     0
 42
0.000000001
 43
0.0000000001
 40
0.0
 40
0.0
 40
0.0
 40
0.0
 40
0.1250000000000001
 40
0.1250000000000001
 40
0.2500000000000002
 40
0.2500000000000002
 40
0.3750000000000003
 40
0.3750000000000003
 40
0.5000000000000005
 40
0.5000000000000005
 40
0.6250000000000004
 40
0.6250000000000004
 40
0.7500000000000002
 40
0.7500000000000002
 40
0.8750000000000001
 40
0.8750000000000001
 40
1.0
 40
1.0
 40
1.0
 40
1.0
 10
489.8565045954743
 20
408.0219603041225
 30
0.0
 10
487.9717771789799
 20
408.8598387996069
 30
0.0
 10
486.1646655330257
 20
409.7997860212329
 30
0.0
 10
482.7039269595704
 20
411.8655497180709
 30
0.0
 10
481.0313349528462
 20
413.007642542206
 30
0.0
 10
477.970474587644
 20
415.359499906335
 30
0.0
 10
476.5744636353319
 20
416.5700433971212
 30
0.0
 10
474.0286847441038
 20
419.0078127349913
 30
0.0
 10
472.8903689732738
 20
420.2269506520553
 30
0.0
 10
470.9356939692404
 20
422.498953807559
 30
0.0
 10
470.0952458563828
 20
423.578142215006
 30
0.0
 10
468.6960304522645
 20
425.4930666832512
 30
0.0
 10
468.1393285556463
 20
426.3232192647904
 30
0.0
 10
467.255714604334
 20
427.6951626717971
 30
0.0
 10
466.9328674820298
 20
428.2309583049006
 30
0.0
 10
466.5112609356921
 20
428.9410008785837
 30
0.0
 10
466.4068517018342
 20
429.1243130449467
 30
0.0
 10
466.4068517018342
 20
429.1243130449467
 30
0.0
  0
LINE
  5
715C4
330
7183F
100
AcDbEntity
  8
Level 26
 62
     7
370
    13
100
AcDbLine
 10
456.014547
 20
423.124313
 30
0.0
 11
466.406852
 21
429.124313
 31
0.0
  0
LINE
  5
715C5
330
7183F
100
AcDbEntity
  8
Level 26
 62
     7
370
    13
100
AcDbLine
 10
476.621854
 20
400.380931
 30
0.0
 11
489.856505
 21
408.02196
 31
0.0
  0
ENDBLK
  5
71841
330
7183F
100
AcDbEntity
  8
0
 62
    98
370
     0
100
AcDbBlockEnd
  0
BLOCK
  5
71843
330
71842
100
AcDbEntity
  8
0
 62
    98
370
     0
100
AcDbBlockBegin
  2
ROUNDE_13
 70
     0
 10
0.0
 20
0.0
 30
0.0
  3
ROUNDE_13
  1

  0
INSERT
  5
71562
330
71842
100
AcDbEntity
  8
Level 26
 62
     7
370
    13
100
AcDbBlockReference
  2
ROUNDE_14
 10
0.0
 20
0.0
 30
0.0
  0
SPLINE
  5
715A5
330
71842
100
AcDbEntity
  8
Level 26
 62
     7
370
    13
100
AcDbSpline
210
0.0
220
0.0
230
1.0
 70
     8
 71
     3
 72
    14
 73
    10
 74
     0
 42
0.000000001
 43
0.0000000001
 40
0.0
 40
0.0
 40
0.0
 40
0.0
 40
0.25
 40
0.25
 40
0.5
 40
0.5
 40
0.75
 40
0.75
 40
1.0
 40
1.0
 40
1.0
 40
1.0
 10
437.957327875454
 20
434.715981238153
 30
0.0
 10
436.8810982937459
 20
437.9283630965426
 30
0.0
 10
436.0410447576246
 20
441.2243668068461
 30
0.0
 10
434.9163495099801
 20
447.8832442173959
 30
0.0
 10
434.6279549265755
 20
451.2476217008273
 30
0.0
 10
434.6308113074256
 20
458.0512129639089
 30
0.0
 10
434.9255545473936
 20
461.4386586002858
 30
0.0
 10
436.0512507611927
 20
468.065580140382
 30
0.0
 10
436.8820092225484
 20
471.3229819775335
 30
0.0
 10
437.957327875454
 20
474.5326448517892
 30
0.0
  0
SPLINE
  5
715A8
330
71842
100
AcDbEntity
  8
Level 26
 62
     7
370
    13
100
AcDbSpline
210
0.0
220
0.0
230
1.0
 70
     8
 71
     3
 72
    10
 73
     6
 74
     0
 42
0.000000001
 43
0.0000000001
 40
0.0
 40
0.0
 40
0.0
 40
0.0
 40
0.5
 40
0.5
 40
1.0
 40
1.0
 40
1.0
 40
1.0
 10
426.7357752694245
 20
481.1243130449654
 30
0.0
 10
425.4909129561628
 20
472.353080344081
 30
0.0
 10
424.8470826245537
 20
463.5127141270524
 30
0.0
 10
424.846455910088
 20
445.7490399202145
 30
0.0
 10
425.4906616825302
 20
436.8973162063173
 30
0.0
 10
426.735775269424
 20
428.1243130449727
 30
0.0
  0
SPLINE
  5
715AB
330
71842
100
AcDbEntity
  8
Level 26
 62
     7
370
    13
100
AcDbSpline
210
0.0
220
0.0
230
1.0
 70
     8
 71
     3
 72
    10
 73
     6
 74
     0
 42
0.000000001
 43
0.0000000001
 40
0.0
 40
0.0
 40
0.0
 40
0.0
 40
0.5
 40
0.5
 40
1.0
 40
1.0
 40
1.0
 40
1.0
 10
502.716030472029
 20
393.1243130449727
 30
0.0
 10
498.2114556221235
 20
393.5977371801398
 30
0.0
 10
493.7289634593148
 20
394.4547642636228
 30
0.0
 10
485.0015468048965
 20
396.9113626663313
 30
0.0
 10
480.7433169348901
 20
398.5043579370865
 30
0.0
 10
476.6218540988993
 20
400.3809312772939
 30
0.0
  0
SPLINE
  5
715AE
330
71842
100
AcDbEntity
  8
Level 26
 62
     7
370
    13
100
AcDbSpline
210
0.0
220
0.0
230
1.0
 70
    24
 71
     3
 72
    16
 73
    12
 74
     0
 42
0.000000001
 43
0.0000000001
 40
0.0
 40
0.0
 40
0.0
 40
0.0
 40
0.2499999999999986
 40
0.2499999999999986
 40
0.3749999999999982
 40
0.3749999999999982
 40
0.4999999999999979
 40
0.4999999999999979
 40
0.749999999999999
 40
0.749999999999999
 40
1.0
 40
1.0
 40
1.0
 40
1.0
 10
456.6829942165715
 20
423.1243130449727
 30
0.0
 10
452.9659697276726
 20
423.1243130449727
 30
0.0
 10
449.358522316669
 20
423.1243130449727
 30
0.0
 10
444.2565151951811
 20
423.1243130449727
 30
0.0
 10
442.6028904836382
 20
423.1243130449727
 30
0.0
 10
439.4002785285417
 20
423.1243130449727
 30
0.0
 10
437.8441332426378
 20
423.1243130449727
 30
0.0
 10
433.4262667612186
 20
423.1243130449727
 30
0.0
 10
430.7942900366964
 20
423.1243130449727
 30
0.0
 10
426.4705003483006
 20
423.1243130449727
 30
0.0
 10
424.7345310202519
 20
423.1243130449727
 30
0.0
 10
423.5608713618335
 20
423.1243130449727
 30
0.0
  0
SPLINE
  5
715B1
330
71842
100
AcDbEntity
  8
Level 26
 62
     7
370
    13
100
AcDbSpline
210
0.0
220
0.0
230
1.0
 70
     8
 71
     3
 72
    18
 73
    14
 74
     0
 42
0.000000001
 43
0.0000000001
 40
0.0
 40
0.0
 40
0.0
 40
0.0
 40
0.2500000000000013
 40
0.2500000000000013
 40
0.5000000000000027
 40
0.5000000000000027
 40
0.625000000000002
 40
0.625000000000002
 40
0.7500000000000014
 40
0.7500000000000014
 40
0.8750000000000007
 40
0.8750000000000007
 40
1.0
 40
1.0
 40
1.0
 40
1.0
 10
423.5608713618335
 20
423.1243130449727
 30
0.0
 10
423.9144609549436
 20
423.1243130449727
 30
0.0
 10
424.3980527694481
 20
423.1269763337338
 30
0.0
 10
425.4779308582362
 20
423.2111255445481
 30
0.0
 10
426.074076122405
 20
423.287364073243
 30
0.0
 10
426.8755552375507
 20
423.6686182669029
 30
0.0
 10
427.1313786393655
 20
423.8443509690799
 30
0.0
 10
427.5744645896791
 20
424.3490016252438
 30
0.0
 10
427.7682477186811
 20
424.6798281128519
 30
0.0
 10
427.9670164336664
 20
425.5598100078666
 30
0.0
 10
427.9479865616029
 20
426.1263917067351
 30
0.0
 10
427.5180124906245
 20
427.2256437047238
 30
0.0
 10
427.138222313892
 20
427.7192244501264
 30
0.0
 10
426.7357752694245
 20
428.1243130449727
 30
0.0
  0
SPLINE
  5
715B4
330
71842
100
AcDbEntity
  8
Level 26
 62
     7
370
    13
100
AcDbSpline
210
0.0
220
0.0
230
1.0
 70
     8
 71
     3
 72
    18
 73
    14
 74
     0
 42
0.000000001
 43
0.0000000001
 40
0.0
 40
0.0
 40
0.0
 40
0.0
 40
0.2500000000000007
 40
0.2500000000000007
 40
0.5000000000000014
 40
0.5000000000000014
 40
0.625000000000001
 40
0.625000000000001
 40
0.7500000000000007
 40
0.7500000000000007
 40
0.8750000000000003
 40
0.8750000000000003
 40
1.0
 40
1.0
 40
1.0
 40
1.0
 10
437.957327875454
 20
434.715981238153
 30
0.0
 10
438.8086639282992
 20
432.174872409668
 30
0.0
 10
439.6436503257965
 20
429.6093774769271
 30
0.0
 10
441.2299719601692
 20
424.5200006965062
 30
0.0
 10
441.9808878448917
 20
421.9865482909756
 30
0.0
 10
443.0617130770627
 20
418.372902211029
 30
0.0
 10
443.4113299915147
 20
417.2139356377313
 30
0.0
 10
444.1070001432802
 20
415.0446245716327
 30
0.0
 10
444.4590055944016
 20
414.0168533700073
 30
0.0
 10
445.176375732081
 20
412.2524799226223
 30
0.0
 10
445.5436986110415
 20
411.5088923829387
 30
0.0
 10
446.3474171248064
 20
410.4122476450613
 30
0.0
 10
446.7621684324014
 20
410.0936167032534
 30
0.0
 10
447.2888478209078
 20
409.8949786311834
 30
0.0
  0
SPLINE
  5
715B7
330
71842
100
AcDbEntity
  8
Level 26
 62
     7
370
    13
100
AcDbSpline
210
0.0
220
0.0
230
1.0
 70
     8
 71
     3
 72
    20
 73
    16
 74
     0
 42
0.000000001
 43
0.0000000001
 40
0.0
 40
0.0
 40
0.0
 40
0.0
 40
0.0624999999999999
 40
0.0624999999999999
 40
0.1249999999999997
 40
0.1249999999999997
 40
0.25
 40
0.25
 40
0.3750000000000003
 40
0.3750000000000003
 40
0.5000000000000006
 40
0.5000000000000006
 40
0.7500000000000004
 40
0.7500000000000004
 40
1.0
 40
1.0
 40
1.0
 40
1.0
 10
447.2888478209078
 20
409.8949786311834
 30
0.0
 10
447.8005027065296
 20
409.7020070772134
 30
0.0
 10
448.5185766168572
 20
409.4293005605602
 30
0.0
 10
450.161312515704
 20
408.796416062534
 30
0.0
 10
451.1009115533321
 20
408.4305234041846
 30
0.0
 10
454.1342073460598
 20
407.2356252777951
 30
0.0
 10
456.3823413292887
 20
406.331861699555
 30
0.0
 10
460.9535678625209
 20
404.4946355635936
 30
0.0
 10
463.3210160971963
 20
403.5448065614066
 30
0.0
 10
468.0742445815438
 20
401.6964419574553
 30
0.0
 10
470.4637302419576
 20
400.7966453446413
 30
0.0
 10
477.680521599166
 20
398.2422376221123
 30
0.0
 10
482.5569246413898
 20
396.7372545389906
 30
0.0
 10
492.4912741835275
 20
394.3936466169209
 30
0.0
 10
497.5490352956438
 20
393.5524528358617
 30
0.0
 10
502.7160304719908
 20
393.1243130449727
 30
0.0
  0
ELLIPSE
  5
715BA
330
71842
100
AcDbEntity
  8
Level 26
 62
     7
370
    13
100
AcDbEllipse
 10
423.560871
 20
393.124313
 30
0.0
 11
0.0
 21
30.00000000000005
 31
0.0
210
0.0
220
0.0
230
-1.0
 40
0.9539045718304086
 41
0.0000000000000098
 42
0.9775902890469865
  0
ELLIPSE
  5
715BB
330
71842
100
AcDbEntity
  8
Level 26
 62
     7
370
    13
100
AcDbEllipse
 10
413.913828
 20
428.124313
 30
0.0
 11
27.77666546375666
 21
11.33388087614076
 31
0.0
210
0.0
220
0.0
230
1.0
 40
0.1758217249114041
 41
-1.16394104508646
 42
-0.6004811796356293
  0
ELLIPSE
  5
715BC
330
71842
100
AcDbEntity
  8
Level 26
 62
     7
370
    13
100
AcDbEllipse
 10
419.174597
 20
402.344171
 30
0.0
 11
29.86596683574138
 21
2.832670995084723
 31
0.0
210
0.0
220
0.0
230
-1.0
 40
0.7542389838019901
 41
5.069091588541331
 42
5.742715018433877
  0
ENDBLK
  5
71844
330
71842
100
AcDbEntity
  8
0
 62
    98
370
     0
100
AcDbBlockEnd
  0
BLOCK
  5
71846
330
71845
100
AcDbEntity
  8
0
 62
    98
370
     0
100
AcDbBlockBegin
  2
ROUNDE_14
 70
     0
 10
0.0
 20
0.0
 30
0.0
  3
ROUNDE_14
  1

  0
INSERT
  5
71563
330
71845
100
AcDbEntity
  8
Level 26
 62
     7
370
    13
100
AcDbBlockReference
  2
SUBTRC_12
 10
0.0
 20
0.0
 30
0.0
  0
LINE
  5
7159B
330
71845
100
AcDbEntity
  8
Level 26
 62
     7
370
    13
100
AcDbLine
 10
417.574147
 20
481.124313
 30
0.0
 11
417.574147
 21
428.124313
 31
0.0
  0
LINE
  5
7159C
330
71845
100
AcDbEntity
  8
Level 26
 62
     7
370
    13
100
AcDbLine
 10
422.574147
 20
486.124313
 30
0.0
 11
422.574147
 21
423.124313
 31
0.0
  0
POINT
  5
7159D
330
71845
100
AcDbEntity
  8
Level 26
 62
     7
370
    13
100
AcDbPoint
 10
417.574147
 20
428.124313
 30
0.0
  0
LINE
  5
7159E
330
71845
100
AcDbEntity
  8
Level 26
 62
     7
370
    13
100
AcDbLine
 10
426.735775
 20
428.124313
 30
0.0
 11
417.574147
 21
428.124313
 31
0.0
  0
LINE
  5
7159F
330
71845
100
AcDbEntity
  8
Level 26
 62
     7
370
    13
100
AcDbLine
 10
423.560871
 20
423.124313
 30
0.0
 11
422.574147
 21
423.124313
 31
0.0
  0
POINT
  5
715A0
330
71845
100
AcDbEntity
  8
Level 26
 62
     7
370
    13
100
AcDbPoint
 10
422.574147
 20
423.124313
 30
0.0
  0
ARC
  5
715A1
330
71845
100
AcDbEntity
  8
Level 26
 62
     7
370
    13
100
AcDbCircle
 10
422.574147
 20
428.124313
 30
0.0
 40
5.0
100
AcDbArc
 50
180.0
 51
270.0
  0
ARC
  5
715A2
330
71845
100
AcDbEntity
  8
Level 26
 62
     7
370
    13
100
AcDbCircle
 10
422.574147
 20
428.124313
 30
0.0
 40
5.000000000000001
100
AcDbArc
 50
180.0
 51
270.0
  0
LINE
  5
715A3
330
71845
100
AcDbEntity
  8
Level 26
 62
     7
370
    13
100
AcDbLine
 10
422.574147
 20
454.624313
 30
0.0
 11
417.574147
 21
454.624313
 31
0.0
  0
ARC
  5
715A4
330
71845
100
AcDbEntity
  8
Level 26
 62
     7
370
    13
100
AcDbCircle
 10
-422.574147
 20
428.124313
 30
0.0
 40
5.000000000000001
210
0.0
220
0.0
230
-1.0
100
AcDbArc
 50
270.0
 51
0.0
  0
ENDBLK
  5
71847
330
71845
100
AcDbEntity
  8
0
 62
    98
370
     0
100
AcDbBlockEnd
  0
BLOCK
  5
71849
330
71848
100
AcDbEntity
  8
0
 62
    98
370
     0
100
AcDbBlockBegin
  2
SUBTRC_12
 70
     0
 10
0.0
 20
0.0
 30
0.0
  3
SUBTRC_12
  1

  0
INSERT
  5
71566
330
71848
100
AcDbEntity
  8
Level 26
 62
     7
370
    13
100
AcDbBlockReference
  2
Feature Solid_39
 10
0.0
 20
0.0
 30
0.0
  0
ENDBLK
  5
7184A
330
71848
100
AcDbEntity
  8
0
 62
    98
370
     0
100
AcDbBlockEnd
  0
BLOCK
  5
7184C
330
7184B
100
AcDbEntity
  8
0
 62
    98
370
     0
100
AcDbBlockBegin
  2
Feature Solid_39
 70
     0
 10
0.0
 20
0.0
 30
0.0
  3
Feature Solid_39
  1

  0
INSERT
  5
71567
330
7184B
100
AcDbEntity
  8
Level 26
 62
     7
370
    13
100
AcDbBlockReference
  2
SUBTRC_13
 10
0.0
 20
0.0
 30
0.0
  0
ENDBLK
  5
7184D
330
7184B
100
AcDbEntity
  8
0
 62
    98
370
     0
100
AcDbBlockEnd
  0
BLOCK
  5
7184F
330
7184E
100
AcDbEntity
  8
0
 62
    98
370
     0
100
AcDbBlockBegin
  2
SUBTRC_13
 70
     0
 10
0.0
 20
0.0
 30
0.0
  3
SUBTRC_13
  1

  0
INSERT
  5
7156A
330
7184E
100
AcDbEntity
  8
Level 26
 62
     7
370
    13
100
AcDbBlockReference
  2
Feature Solid_40
 10
0.0
 20
0.0
 30
0.0
  0
ENDBLK
  5
71850
330
7184E
100
AcDbEntity
  8
0
 62
    98
370
     0
100
AcDbBlockEnd
  0
BLOCK
  5
71852
330
71851
100
AcDbEntity
  8
0
 62
    98
370
     0
100
AcDbBlockBegin
  2
Feature Solid_40
 70
     0
 10
0.0
 20
0.0
 30
0.0
  3
Feature Solid_40
  1

  0
INSERT
  5
7156B
330
71851
100
AcDbEntity
  8
Level 26
 62
     7
370
    13
100
AcDbBlockReference
  2
UNITE_14
 10
0.0
 20
0.0
 30
0.0
  0
ENDBLK
  5
71853
330
71851
100
AcDbEntity
  8
0
 62
    98
370
     0
100
AcDbBlockEnd
  0
BLOCK
  5
71855
330
71854
100
AcDbEntity
  8
0
 62
    98
370
     0
100
AcDbBlockBegin
  2
UNITE_14
 70
     0
 10
0.0
 20
0.0
 30
0.0
  3
UNITE_14
  1

  0
INSERT
  5
7156C
330
71854
100
AcDbEntity
  8
Level 26
 62
     7
370
    13
100
AcDbBlockReference
  2
Feature Solid_41
 10
0.0
 20
0.0
 30
0.0
  0
INSERT
  5
7158B
330
71854
100
AcDbEntity
  8
Level 26
 62
     7
370
    13
100
AcDbBlockReference
  2
Feature Solid_47
 10
0.0
 20
0.0
 30
0.0
  0
ENDBLK
  5
71856
330
71854
100
AcDbEntity
  8
0
 62
    98
370
     0
100
AcDbBlockEnd
  0
BLOCK
  5
71858
330
71857
100
AcDbEntity
  8
0
 62
    98
370
     0
100
AcDbBlockBegin
  2
Feature Solid_41
 70
     0
 10
0.0
 20
0.0
 30
0.0
  3
Feature Solid_41
  1

  0
INSERT
  5
7156D
330
71857
100
AcDbEntity
  8
Level 26
 62
     7
370
    13
100
AcDbBlockReference
  2
SUBTRC_14
 10
0.0
 20
0.0
 30
0.0
  0
ENDBLK
  5
71859
330
71857
100
AcDbEntity
  8
0
 62
    98
370
     0
100
AcDbBlockEnd
  0
BLOCK
  5
7185B
330
7185A
100
AcDbEntity
  8
0
 62
    98
370
     0
100
AcDbBlockBegin
  2
SUBTRC_14
 70
     0
 10
0.0
 20
0.0
 30
0.0
  3
SUBTRC_14
  1

  0
INSERT
  5
71570
330
7185A
100
AcDbEntity
  8
Level 26
 62
     7
370
    13
100
AcDbBlockReference
  2
Feature Solid_42
 10
0.0
 20
0.0
 30
0.0
  0
ENDBLK
  5
7185C
330
7185A
100
AcDbEntity
  8
0
 62
    98
370
     0
100
AcDbBlockEnd
  0
BLOCK
  5
7185E
330
7185D
100
AcDbEntity
  8
0
 62
    98
370
     0
100
AcDbBlockBegin
  2
Feature Solid_42
 70
     0
 10
0.0
 20
0.0
 30
0.0
  3
Feature Solid_42
  1

  0
INSERT
  5
71571
330
7185D
100
AcDbEntity
  8
Level 26
 62
     7
370
    13
100
AcDbBlockReference
  2
ROUNDE_15
 10
0.0
 20
0.0
 30
0.0
  0
ENDBLK
  5
7185F
330
7185D
100
AcDbEntity
  8
0
 62
    98
370
     0
100
AcDbBlockEnd
  0
BLOCK
  5
71861
330
71860
100
AcDbEntity
  8
0
 62
    98
370
     0
100
AcDbBlockBegin
  2
ROUNDE_15
 70
     0
 10
0.0
 20
0.0
 30
0.0
  3
ROUNDE_15
  1

  0
INSERT
  5
71572
330
71860
100
AcDbEntity
  8
Level 26
 62
     7
370
    13
100
AcDbBlockReference
  2
SUBTRC_15
 10
0.0
 20
0.0
 30
0.0
  0
LINE
  5
7158A
330
71860
100
AcDbEntity
  8
Level 26
 62
     7
370
    13
100
AcDbLine
 10
417.574147
 20
481.124313
 30
0.0
 11
417.574147
 21
428.124313
 31
0.0
  0
ENDBLK
  5
71862
330
71860
100
AcDbEntity
  8
0
 62
    98
370
     0
100
AcDbBlockEnd
  0
BLOCK
  5
71864
330
71863
100
AcDbEntity
  8
0
 62
    98
370
     0
100
AcDbBlockBegin
  2
SUBTRC_15
 70
     0
 10
0.0
 20
0.0
 30
0.0
  3
SUBTRC_15
  1

  0
INSERT
  5
71573
330
71863
100
AcDbEntity
  8
Level 26
 62
     7
370
    13
100
AcDbBlockReference
  2
Feature Solid_43
 10
0.0
 20
0.0
 30
0.0
  0
INSERT
  5
7157D
330
71863
100
AcDbEntity
  8
Level 26
 62
     7
370
    13
100
AcDbBlockReference
  2
Feature Solid_44
 10
0.0
 20
0.0
 30
0.0
  0
ENDBLK
  5
71865
330
71863
100
AcDbEntity
  8
0
 62
    98
370
     0
100
AcDbBlockEnd
  0
BLOCK
  5
71867
330
71866
100
AcDbEntity
  8
0
 62
    98
370
     0
100
AcDbBlockBegin
  2
Feature Solid_43
 70
     0
 10
0.0
 20
0.0
 30
0.0
  3
Feature Solid_43
  1

  0
INSERT
  5
71574
330
71866
100
AcDbEntity
  8
Level 26
 62
     7
370
    13
100
AcDbBlockReference
  2
CONE_4
 10
0.0
 20
0.0
 30
0.0
  0
ENDBLK
  5
71868
330
71866
100
AcDbEntity
  8
0
 62
    98
370
     0
100
AcDbBlockEnd
  0
BLOCK
  5
7186A
330
71869
100
AcDbEntity
  8
0
 62
    98
370
     0
100
AcDbBlockBegin
  2
CONE_4
 70
     0
 10
0.0
 20
0.0
 30
0.0
  3
CONE_4
  1

  0
LINE
  5
71575
330
71869
100
AcDbEntity
  8
Level 26
 62
     7
370
    13
100
AcDbLine
 10
417.574147
 20
433.124313
 30
0.0
 11
417.574147
 21
476.124313
 31
0.0
  0
SPLINE
  5
71576
330
71869
100
AcDbEntity
  8
Level 26
 62
     7
370
    13
100
AcDbSpline
210
0.0
220
0.0
230
1.0
 70
    11
 71
     3
 72
    62
 73
    58
 74
     0
 42
0.000000001
 43
0.0000000001
 40
0.0
 40
0.0
 40
0.0
 40
0.0
 40
0.03125
 40
0.03125
 40
0.0625
 40
0.0625
 40
0.0937499999999999
 40
0.0937499999999999
 40
0.1249999999999999
 40
0.1249999999999999
 40
0.1874999999999999
 40
0.1874999999999999
 40
0.2187499999999999
 40
0.2187499999999999
 40
0.2499999999999999
 40
0.2499999999999999
 40
0.2812499999999999
 40
0.2812499999999999
 40
0.3125
 40
0.3125
 40
0.34375
 40
0.34375
 40
0.375
 40
0.375
 40
0.40625
 40
0.40625
 40
0.4375000000000001
 40
0.4375000000000001
 40
0.5
 40
0.5
 40
0.53125
 40
0.53125
 40
0.5625
 40
0.5625
 40
0.59375
 40
0.59375
 40
0.625
 40
0.625
 40
0.65625
 40
0.65625
 40
0.6874999999999999
 40
0.6874999999999999
 40
0.7187499999999999
 40
0.7187499999999999
 40
0.7499999999999999
 40
0.7499999999999999
 40
0.8124999999999998
 40
0.8124999999999998
 40
0.8437499999999998
 40
0.8437499999999998
 40
0.8749999999999998
 40
0.8749999999999998
 40
0.9374999999999998
 40
0.9374999999999998
 40
0.9687499999999998
 40
0.9687499999999998
 40
1.0
 40
1.0
 40
1.0
 40
1.0
 10
459.5741472948287
 20
454.6243130449654
 30
0.0
 10
459.5741472948287
 20
456.0624155781977
 30
0.0
 10
459.6348158021969
 20
457.4733575979396
 30
0.0
 10
459.8656591740827
 20
460.2440799697826
 30
0.0
 10
460.038862002749
 20
461.6183700093663
 30
0.0
 10
460.4668275057626
 20
464.2153711685202
 30
0.0
 10
460.720767456667
 20
465.4442081484533
 30
0.0
 10
461.2825929298633
 20
467.7686000025871
 30
0.0
 10
461.5888270320221
 20
468.8542119088435
 30
0.0
 10
462.5062591489577
 20
471.7906935865841
 30
0.0
 10
463.1342736213738
 20
473.3813839164711
 30
0.0
 10
463.8169403542997
 20
474.9984616057948
 30
0.0
 10
464.0058450357974
 20
475.4206563984678
 30
0.0
 10
464.2601589006321
 20
475.9810251324441
 30
0.0
 10
464.3266330018239
 20
476.1223926362734
 30
0.0
 10
464.3284006986534
 20
476.1261949662828
 30
0.0
 10
464.2613178415857
 20
475.9834977986368
 30
0.0
 10
464.0092736272057
 20
475.4282906844689
 30
0.0
 10
463.8244000263084
 20
475.0157577103748
 30
0.0
 10
463.3640291481772
 20
473.9259873192906
 30
0.0
 10
463.0952599405441
 20
473.2640260136652
 30
0.0
 10
462.5159853026308
 20
471.7151500603965
 30
0.0
 10
462.2025415176758
 20
470.818263886895
 30
0.0
 10
461.5893931273175
 20
468.8563244446107
 30
0.0
 10
461.2877742375871
 20
467.7878687770928
 30
0.0
 10
460.7257233255384
 20
465.4668402608933
 30
0.0
 10
460.4674726997944
 20
464.2176467323045
 30
0.0
 10
459.8286426378461
 20
460.3459664724953
 30
0.0
 10
459.5757644956521
 20
457.4864119283931
 30
0.0
 10
459.5733510310333
 20
453.2367089961582
 30
0.0
 10
459.6332981645148
 20
451.7983379587497
 30
0.0
 10
459.864753503168
 20
449.0106131431609
 30
0.0
 10
460.0342066824977
 20
447.6631442337818
 30
0.0
 10
460.462127696087
 20
445.0572361637503
 30
0.0
 10
460.720335994204
 20
443.8070767512993
 30
0.0
 10
461.2789055999638
 20
441.4944140173199
 30
0.0
 10
461.5835083252228
 20
440.4119751406017
 30
0.0
 10
462.2010838159499
 20
438.4341930631214
 30
0.0
 10
462.5085220155595
 20
437.5544578964452
 30
0.0
 10
463.0874047839986
 20
436.0046037564541
 30
0.0
 10
463.3614058921141
 20
435.3291755857505
 30
0.0
 10
463.818504838421
 20
434.2465021022223
 30
0.0
 10
464.0032798087406
 20
433.8336981786008
 30
0.0
 10
464.2584656228557
 20
433.2712571468317
 30
0.0
 10
464.3268838031981
 20
433.1256939771958
 30
0.0
 10
464.328795770645
 20
433.1215813220739
 30
0.0
 10
464.0508187362113
 20
433.6970104780832
 30
0.0
 10
463.3670080255265
 20
435.3155320054145
 30
0.0
 10
463.0934873433676
 20
435.9890396368466
 30
0.0
 10
462.5132082126866
 20
437.5412038734964
 30
0.0
 10
462.2055076152151
 20
438.4211235120781
 30
0.0
 10
461.280202020599
 20
441.3811419261844
 30
0.0
 10
460.6852426650691
 20
443.7087208312489
 30
0.0
 10
460.0373031468205
 20
447.6392845415696
 30
0.0
 10
459.8677611249625
 20
448.9860738247337
 30
0.0
 10
459.6361191063952
 20
451.7529676832034
 30
0.0
 10
459.5741472948287
 20
453.1862105117332
 30
0.0
 10
459.5741472948287
 20
454.6243130449654
 30
0.0
  0
LINE
  5
71579
330
71869
100
AcDbEntity
  8
Level 26
 62
     7
370
    13
100
AcDbLine
 10
417.574147
 20
433.124313
 30
0.0
 11
464.302451
 21
433.124313
 31
0.0
  0
LINE
  5
7157A
330
71869
100
AcDbEntity
  8
Level 26
 62
     7
370
    13
100
AcDbLine
 10
417.574147
 20
454.624313
 30
0.0
 11
459.592702
 21
454.624313
 31
0.0
  0
LINE
  5
7157B
330
71869
100
AcDbEntity
  8
Level 26
 62
     7
370
    13
100
AcDbLine
 10
417.574147
 20
476.124313
 30
0.0
 11
464.291502
 21
476.124313
 31
0.0
  0
LINE
  5
7157C
330
71869
100
AcDbEntity
  8
Level 26
 62
     7
370
    13
100
AcDbLine
 10
417.574147
 20
454.624313
 30
0.0
 11
459.574147
 21
454.624313
 31
0.0
  0
ENDBLK
  5
7186B
330
71869
100
AcDbEntity
  8
0
 62
    98
370
     0
100
AcDbBlockEnd
  0
BLOCK
  5
7186D
330
7186C
100
AcDbEntity
  8
0
 62
    98
370
     0
100
AcDbBlockBegin
  2
Feature Solid_44
 70
     0
 10
0.0
 20
0.0
 30
0.0
  3
Feature Solid_44
  1

  0
INSERT
  5
7157E
330
7186C
100
AcDbEntity
  8
Level 26
 62
     7
370
    13
100
AcDbBlockReference
  2
UNITE_15
 10
0.0
 20
0.0
 30
0.0
  0
ENDBLK
  5
7186E
330
7186C
100
AcDbEntity
  8
0
 62
    98
370
     0
100
AcDbBlockEnd
  0
BLOCK
  5
71870
330
7186F
100
AcDbEntity
  8
0
 62
    98
370
     0
100
AcDbBlockBegin
  2
UNITE_15
 70
     0
 10
0.0
 20
0.0
 30
0.0
  3
UNITE_15
  1

  0
INSERT
  5
7157F
330
7186F
100
AcDbEntity
  8
Level 26
 62
     7
370
    13
100
AcDbBlockReference
  2
Feature Solid_45
 10
0.0
 20
0.0
 30
0.0
  0
INSERT
  5
71583
330
7186F
100
AcDbEntity
  8
Level 26
 62
     7
370
    13
100
AcDbBlockReference
  2
Feature Solid_46
 10
68.949834
 20
965.19846
 30
0.0
 50
270.0
  0
ENDBLK
  5
71871
330
7186F
100
AcDbEntity
  8
0
 62
    98
370
     0
100
AcDbBlockEnd
  0
BLOCK
  5
71873
330
71872
100
AcDbEntity
  8
0
 62
    98
370
     0
100
AcDbBlockBegin
  2
Feature Solid_45
 70
     0
 10
0.0
 20
0.0
 30
0.0
  3
Feature Solid_45
  1

  0
INSERT
  5
71580
330
71872
100
AcDbEntity
  8
Level 26
 62
     7
370
    13
100
AcDbBlockReference
  2
SLAB_3
 10
0.0
 20
0.0
 30
0.0
  0
ENDBLK
  5
71874
330
71872
100
AcDbEntity
  8
0
 62
    98
370
     0
100
AcDbBlockEnd
  0
BLOCK
  5
71876
330
71875
100
AcDbEntity
  8
0
 62
    98
370
     0
100
AcDbBlockBegin
  2
SLAB_3
 70
     0
 10
0.0
 20
0.0
 30
0.0
  3
SLAB_3
  1

  0
LINE
  5
71581
330
71875
100
AcDbEntity
  8
Level 26
 62
     7
370
    13
100
AcDbLine
 10
422.574147
 20
423.124313
 30
0.0
 11
456.014547
 21
423.124313
 31
0.0
  0
POINT
  5
71582
330
71875
100
AcDbEntity
  8
Level 26
 62
     7
370
    13
100
AcDbPoint
 10
456.014547
 20
423.124313
 30
0.0
  0
ENDBLK
  5
71877
330
71875
100
AcDbEntity
  8
0
 62
    98
370
     0
100
AcDbBlockEnd
  0
BLOCK
  5
71879
330
71878
100
AcDbEntity
  8
0
 62
    98
370
     0
100
AcDbBlockBegin
  2
Feature Solid_46
 70
     0
 10
0.0
 20
0.0
 30
0.0
  3
Feature Solid_46
  1

  0
INSERT
  5
71584
330
71878
100
AcDbEntity
  8
Level 26
 62
     7
370
    13
100
AcDbBlockReference
  2
CONE_5
 10
0.0
 20
0.0
 30
0.0
  0
ENDBLK
  5
7187A
330
71878
100
AcDbEntity
  8
0
 62
    98
370
     0
100
AcDbBlockEnd
  0
BLOCK
  5
7187C
330
7187B
100
AcDbEntity
  8
0
 62
    98
370
     0
100
AcDbBlockBegin
  2
CONE_5
 70
     0
 10
0.0
 20
0.0
 30
0.0
  3
CONE_5
  1

  0
SPLINE
  5
71585
330
7187B
100
AcDbEntity
  8
Level 26
 62
     7
370
    13
100
AcDbSpline
210
0.0
220
0.0
230
1.0
 70
     8
 71
     3
 72
    26
 73
    22
 74
     0
 42
0.000000001
 43
0.0000000001
 40
0.0
 40
0.0
 40
0.0
 40
0.0
 40
0.1249999999999999
 40
0.1249999999999999
 40
0.2499999999999997
 40
0.2499999999999997
 40
0.3124999999999996
 40
0.3124999999999996
 40
0.3749999999999996
 40
0.3749999999999996
 40
0.4999999999999997
 40
0.4999999999999997
 40
0.5624999999999997
 40
0.5624999999999997
 40
0.6249999999999999
 40
0.6249999999999999
 40
0.7499999999999999
 40
0.7499999999999999
 40
0.8749999999999998
 40
0.8749999999999998
 40
1.0
 40
1.0
 40
1.0
 40
1.0
 10
485.074147294812
 20
397.4570174519709
 30
0.0
 10
486.4980948108323
 20
396.6349009702849
 30
0.0
 10
488.1210545362641
 20
395.7888550560717
 30
0.0
 10
491.7936062703392
 20
394.1656798756058
 30
0.0
 10
493.8255727204346
 20
393.3996964089056
 30
0.0
 10
497.0807283576204
 20
392.428685745609
 30
0.0
 10
498.2054023569599
 20
392.1324237842318
 30
0.0
 10
500.5410690701792
 20
391.6066132250736
 30
0.0
 10
501.7604608963875
 20
391.376375636586
 30
0.0
 10
505.4374786497987
 20
390.8231342974492
 30
0.0
 10
507.9438815645763
 20
390.6276400374789
 30
0.0
 10
511.7912996490636
 20
390.6227122950107
 30
0.0
 10
513.0841199178917
 20
390.6703683570321
 30
0.0
 10
515.610508474238
 20
390.8577934882725
 30
0.0
 10
516.855246454384
 20
390.9973799675051
 30
0.0
 10
520.5358630235455
 20
391.5451910711639
 30
0.0
 10
522.9156474325991
 20
392.0874395917124
 30
0.0
 10
527.2934013166686
 20
393.3886312095486
 30
0.0
 10
529.3444707952403
 20
394.1618849147289
 30
0.0
 10
533.00685181595
 20
395.7791290427582
 30
0.0
 10
534.6458475724643
 20
396.6323882227615
 30
0.0
 10
536.074147294868
 20
397.4570174519751
 30
0.0
  0
LINE
  5
71588
330
7187B
100
AcDbEntity
  8
Level 26
 62
     7
370
    13
100
AcDbLine
 10
542.074147
 20
387.064713
 30
0.0
 11
536.074147
 21
397.457017
 31
0.0
  0
LINE
  5
71589
330
7187B
100
AcDbEntity
  8
Level 26
 62
     7
370
    13
100
AcDbLine
 10
510.574147
 20
353.624313
 30
0.0
 11
510.574147
 21
390.667037
 31
0.0
  0
ENDBLK
  5
7187D
330
7187B
100
AcDbEntity
  8
0
 62
    98
370
     0
100
AcDbBlockEnd
  0
BLOCK
  5
7187F
330
7187E
100
AcDbEntity
  8
0
 62
    98
370
     0
100
AcDbBlockBegin
  2
Feature Solid_47
 70
     0
 10
0.0
 20
0.0
 30
0.0
  3
Feature Solid_47
  1

  0
INSERT
  5
7158C
330
7187E
100
AcDbEntity
  8
Level 26
 62
     7
370
    13
100
AcDbBlockReference
  2
DDREVL_5
 10
0.0
 20
0.0
 30
0.0
  0
ENDBLK
  5
71880
330
7187E
100
AcDbEntity
  8
0
 62
    98
370
     0
100
AcDbBlockEnd
  0
BLOCK
  5
71882
330
71881
100
AcDbEntity
  8
0
 62
    98
370
     0
100
AcDbBlockBegin
  2
DDREVL_5
 70
     0
 10
0.0
 20
0.0
 30
0.0
  3
DDREVL_5
  1

  0
ARC
  5
7158D
330
71881
100
AcDbEntity
  8
Level 26
 62
     7
370
    13
100
AcDbCircle
 10
-510.574147
 20
454.624313
 30
0.0
 40
51.00000000000884
210
0.0
220
0.0
230
-1.0
100
AcDbArc
 50
66.031879
 51
293.968121
  0
ARC
  5
7158E
330
71881
100
AcDbEntity
  8
Level 26
 62
     7
370
    13
100
AcDbCircle
 10
-510.574147
 20
454.624313
 30
0.0
 40
62.00000000000894
210
0.0
220
0.0
230
-1.0
100
AcDbArc
 50
82.71853
 51
277.28147
  0
LINE
  5
7158F
330
71881
100
AcDbEntity
  8
Level 26
 62
     7
370
    13
100
AcDbLine
 10
466.406852
 20
429.124313
 30
0.0
 11
466.406852
 21
429.124313
 31
0.0
  0
POINT
  5
71590
330
71881
100
AcDbEntity
  8
Level 26
 62
     7
370
    13
100
AcDbPoint
 10
510.574147
 20
505.624313
 30
0.0
  0
LINE
  5
71591
330
71881
100
AcDbEntity
  8
Level 26
 62
     7
370
    13
100
AcDbLine
 10
459.574147
 20
454.624313
 30
0.0
 11
459.574147
 21
454.624313
 31
0.0
  0
POINT
  5
71592
330
71881
100
AcDbEntity
  8
Level 26
 62
     7
370
    13
100
AcDbPoint
 10
459.574147
 20
454.624313
 30
0.0
  0
POINT
  5
71593
330
71881
100
AcDbEntity
  8
Level 26
 62
     7
370
    13
100
AcDbPoint
 10
510.574147
 20
403.624313
 30
0.0
  0
POINT
  5
71594
330
71881
100
AcDbEntity
  8
Level 26
 62
     7
370
    13
100
AcDbPoint
 10
561.574147
 20
454.624313
 30
0.0
  0
ARC
  5
71595
330
71881
100
AcDbEntity
  8
Level 26
 62
     7
370
    13
100
AcDbCircle
 10
-510.574147
 20
454.624313
 30
0.0
 40
78.00000000000899
210
0.0
220
0.0
230
-1.0
100
AcDbArc
 50
33.871143
 51
90.0
  0
ARC
  5
71596
330
71881
100
AcDbEntity
  8
Level 26
 62
     7
370
    13
100
AcDbCircle
 10
-510.574147
 20
454.624313
 30
0.0
 40
78.00000000000899
210
0.0
220
0.0
230
-1.0
100
AcDbArc
 50
90.0
 51
326.128272
  0
LINE
  5
71597
330
71881
100
AcDbEntity
  8
Level 26
 62
     7
370
    13
100
AcDbLine
 10
437.260439
 20
454.624313
 30
0.0
 11
434.632456
 21
454.624313
 31
0.0
  0
LINE
  5
71598
330
71881
100
AcDbEntity
  8
Level 26
 62
     7
370
    13
100
AcDbLine
 10
510.574147
 20
392.624313
 30
0.0
 11
510.574147
 21
376.624313
 31
0.0
  0
LINE
  5
71599
330
71881
100
AcDbEntity
  8
Level 26
 62
     7
370
    13
100
AcDbLine
 10
572.574147
 20
454.624313
 30
0.0
 11
588.574147
 21
454.624313
 31
0.0
  0
LINE
  5
7159A
330
71881
100
AcDbEntity
  8
Level 26
 62
     7
370
    13
100
AcDbLine
 10
510.574147
 20
532.624313
 30
0.0
 11
510.574147
 21
516.624313
 31
0.0
  0
ENDBLK
  5
71883
330
71881
100
AcDbEntity
  8
0
 62
    98
370
     0
100
AcDbBlockEnd
  0
BLOCK
  5
71885
330
71884
100
AcDbEntity
  8
0
 62
    98
370
     0
100
AcDbBlockBegin
  2
Feature Solid_48
 70
     0
 10
0.0
 20
0.0
 30
0.0
  3
Feature Solid_48
  1

  0
INSERT
  5
715C8
330
71884
100
AcDbEntity
  8
Level 25
  6
Continuous
 62
   253
370
    13
100
AcDbBlockReference
  2
CONE_6
 10
-21991.796906
 20
989.951725
 30
0.0
  0
ENDBLK
  5
71886
330
71884
100
AcDbEntity
  8
0
 62
    98
370
     0
100
AcDbBlockEnd
  0
BLOCK
  5
71888
330
71887
100
AcDbEntity
  8
0
 62
    98
370
     0
100
AcDbBlockBegin
  2
CONE_6
 70
     0
 10
0.0
 20
0.0
 30
0.0
  3
CONE_6
  1

  0
LINE
  5
715C9
330
71887
100
AcDbEntity
  8
Level 25
  6
Continuous
 62
   253
370
    13
100
AcDbLine
 10
22015.997406
 20
-1589.951725
 30
0.0
 11
21967.597406
 21
-1589.951725
 31
0.0
  0
LINE
  5
715CA
330
71887
100
AcDbEntity
  8
Level 25
  6
Continuous
 62
   253
370
    13
100
AcDbLine
 10
22015.997406
 20
-389.951725
 30
0.0
 11
21967.597406
 21
-389.951725
 31
0.0
  0
LINE
  5
715CB
330
71887
100
AcDbEntity
  8
Level 25
  6
Continuous
 62
   253
370
    13
100
AcDbLine
 10
21991.797406
 20
-389.951725
 30
0.0
 11
21991.797406
 21
-1589.951725
 31
0.0
  0
LINE
  5
715CC
330
71887
100
AcDbEntity
  8
Level 25
  6
Continuous
 62
   253
370
    13
100
AcDbLine
 10
22015.997406
 20
-389.951725
 30
0.0
 11
22015.997406
 21
-1589.951725
 31
0.0
  0
LINE
  5
715CD
330
71887
100
AcDbEntity
  8
Level 25
  6
Continuous
 62
   253
370
    13
100
AcDbLine
 10
21991.797406
 20
-389.951725
 30
0.0
 11
21991.797406
 21
-1589.951725
 31
0.0
  0
LINE
  5
715CE
330
71887
100
AcDbEntity
  8
Level 25
  6
Continuous
 62
   253
370
    13
100
AcDbLine
 10
21967.597406
 20
-389.951725
 30
0.0
 11
21967.597406
 21
-1589.951725
 31
0.0
  0
ENDBLK
  5
71889
330
71887
100
AcDbEntity
  8
0
 62
    98
370
     0
100
AcDbBlockEnd
  0
BLOCK
  5
7188B
330
7188A
100
AcDbEntity
  8
0
 62
    98
370
     0
100
AcDbBlockBegin
  2
Feature Solid_49
 70
     0
 10
0.0
 20
0.0
 30
0.0
  3
Feature Solid_49
  1

  0
INSERT
  5
715D1
330
7188A
100
AcDbEntity
  8
Level 25
  6
Continuous
 62
   253
370
    13
100
AcDbBlockReference
  2
SUBTRC_16
 10
-1789.25
 20
-2257.9
 30
0.0
  0
ENDBLK
  5
7188C
330
7188A
100
AcDbEntity
  8
0
 62
    98
370
     0
100
AcDbBlockEnd
  0
BLOCK
  5
7188E
330
7188D
100
AcDbEntity
  8
0
 62
    98
370
     0
100
AcDbBlockBegin
  2
SUBTRC_16
 70
     0
 10
0.0
 20
0.0
 30
0.0
  3
SUBTRC_16
  1

  0
INSERT
  5
715D4
330
7188D
100
AcDbEntity
  8
Level 25
  6
Continuous
 62
   253
370
    13
100
AcDbBlockReference
  2
Feature Solid_50
 10
0.0
 20
3949.755742
 30
0.0
 50
180.0
210
0.0
220
0.0
230
-1.0
  0
ENDBLK
  5
7188F
330
7188D
100
AcDbEntity
  8
0
 62
    98
370
     0
100
AcDbBlockEnd
  0
BLOCK
  5
71891
330
71890
100
AcDbEntity
  8
0
 62
    98
370
     0
100
AcDbBlockBegin
  2
Feature Solid_50
 70
     0
 10
0.0
 20
0.0
 30
0.0
  3
Feature Solid_50
  1

  0
INSERT
  5
715D5
330
71890
100
AcDbEntity
  8
Level 25
  6
Continuous
 62
   253
370
    13
100
AcDbBlockReference
  2
UNITE_16
 10
0.0
 20
0.0
 30
0.0
  0
ENDBLK
  5
71892
330
71890
100
AcDbEntity
  8
0
 62
    98
370
     0
100
AcDbBlockEnd
  0
BLOCK
  5
71894
330
71893
100
AcDbEntity
  8
0
 62
    98
370
     0
100
AcDbBlockBegin
  2
UNITE_16
 70
     0
 10
0.0
 20
0.0
 30
0.0
  3
UNITE_16
  1

  0
INSERT
  5
715D6
330
71893
100
AcDbEntity
  8
Level 25
  6
Continuous
 62
   253
370
    13
100
AcDbBlockReference
  2
Feature Solid_51
 10
0.0
 20
-195.0
 30
0.0
  0
INSERT
  5
715DF
330
71893
100
AcDbEntity
  8
Level 25
  6
Continuous
 62
   253
370
    13
100
AcDbBlockReference
  2
Feature Solid_52
 10
0.0
 20
-195.0
 30
0.0
  0
INSERT
  5
715E6
330
71893
100
AcDbEntity
  8
Level 25
  6
Continuous
 62
   253
370
    13
100
AcDbBlockReference
  2
Feature Solid_53
 10
0.0
 20
-195.0
 30
0.0
  0
INSERT
  5
715ED
330
71893
100
AcDbEntity
  8
Level 25
  6
Continuous
 62
   253
370
    13
100
AcDbBlockReference
  2
Feature Solid_54
 10
0.0
 20
-195.0
 30
0.0
  0
INSERT
  5
715F4
330
71893
100
AcDbEntity
  8
Level 25
  6
Continuous
 62
   253
370
    13
100
AcDbBlockReference
  2
Feature Solid_55
 10
0.0
 20
-195.0
 30
0.0
  0
ENDBLK
  5
71895
330
71893
100
AcDbEntity
  8
0
 62
    98
370
     0
100
AcDbBlockEnd
  0
BLOCK
  5
71897
330
71896
100
AcDbEntity
  8
0
 62
    98
370
     0
100
AcDbBlockBegin
  2
Feature Solid_51
 70
     0
 10
0.0
 20
0.0
 30
0.0
  3
Feature Solid_51
  1

  0
INSERT
  5
715D7
330
71896
100
AcDbEntity
  8
Level 25
  6
Continuous
 62
   253
370
    13
100
AcDbBlockReference
  2
DDPROJ
 10
0.0
 20
0.0
 30
0.0
  0
ENDBLK
  5
71898
330
71896
100
AcDbEntity
  8
0
 62
    98
370
     0
100
AcDbBlockEnd
  0
BLOCK
  5
7189A
330
71899
100
AcDbEntity
  8
0
 62
    98
370
     0
100
AcDbBlockBegin
  2
DDPROJ
 70
     0
 10
0.0
 20
0.0
 30
0.0
  3
DDPROJ
  1

  0
SPLINE
  5
715D8
330
71899
100
AcDbEntity
  8
Level 25
  6
Continuous
 62
   253
370
    13
100
AcDbSpline
210
0.0
220
0.0
230
1.0
 70
     9
 71
     3
 72
    65
 73
    61
 74
     0
 42
0.000000001
 43
0.0000000001
 40
0.0
 40
0.0
 40
0.0
 40
0.0
 40
0.0478874748942779
 40
0.0478874748942779
 40
0.0478874748942779
 40
0.0954231915822442
 40
0.0954231915822442
 40
0.0954231915822442
 40
0.1479430513843611
 40
0.1479430513843611
 40
0.1479430513843611
 40
0.2052621310094707
 40
0.2052621310094707
 40
0.2052621310094707
 40
0.2576563374432028
 40
0.2576563374432028
 40
0.2576563374432028
 40
0.3042938191004628
 40
0.3042938191004628
 40
0.3042938191004628
 40
0.3513745452954859
 40
0.3513745452954859
 40
0.3513745452954859
 40
0.4036870666662911
 40
0.4036870666662911
 40
0.4036870666662911
 40
0.4609144159546285
 40
0.4609144159546285
 40
0.4609144159546285
 40
0.5134920645150859
 40
0.5134920645150859
 40
0.5134920645150859
 40
0.5579494996308174
 40
0.5579494996308174
 40
0.5579494996308174
 40
0.6042220120771082
 40
0.6042220120771082
 40
0.6042220120771082
 40
0.6581550545996131
 40
0.6581550545996131
 40
0.6581550545996131
 40
0.7151378738746789
 40
0.7151378738746789
 40
0.7151378738746789
 40
0.7661466338033254
 40
0.7661466338033254
 40
0.7661466338033254
 40
0.8123078588329432
 40
0.8123078588329432
 40
0.8123078588329432
 40
0.8599668332764828
 40
0.8599668332764828
 40
0.8599668332764828
 40
0.9132886237559125
 40
0.9132886237559125
 40
0.9132886237559125
 40
0.9705109289585053
 40
0.9705109289585053
 40
0.9705109289585053
 40
1.0
 40
1.0
 40
1.0
 40
1.0
 10
1775.818575323578
 20
1633.338604414587
 30
0.0
 10
1775.818575323578
 20
1634.708817380257
 30
0.0
 10
1776.035888010494
 20
1636.09757647005
 30
0.0
 10
1776.440713416781
 20
1637.38192716947
 30
0.0
 10
1776.843813037995
 20
1638.660802636277
 30
0.0
 10
1777.439407882612
 20
1639.87226834184
 30
0.0
 10
1778.180798182428
 20
1640.95199380882
 30
0.0
 10
1778.999083575613
 20
1642.143705621743
 30
0.0
 10
1780.015850911863
 20
1643.207170176081
 30
0.0
 10
1781.172797002066
 20
1644.079222337636
 30
0.0
 10
1782.430070879236
 20
1645.026896919482
 30
0.0
 10
1783.89606869094
 20
1645.774648049169
 30
0.0
 10
1785.446962399777
 20
1646.234253861615
 30
0.0
 10
1786.865281359624
 20
1646.654571278687
 30
0.0
 10
1788.399859790284
 20
1646.843643609192
 30
0.0
 10
1789.894318136632
 20
1646.774040616361
 30
0.0
 10
1791.229968726925
 20
1646.711833945503
 30
0.0
 10
1792.569610654794
 20
1646.443514632641
 30
0.0
 10
1793.808777252756
 20
1645.999136256693
 30
0.0
 10
1795.061706916641
 20
1645.549822298319
 30
0.0
 10
1796.243726569325
 20
1644.912023783513
 30
0.0
 10
1797.288646328471
 20
1644.135870785635
 30
0.0
 10
1798.44843578887
 20
1643.274394046667
 30
0.0
 10
1799.469768137846
 20
1642.221909540988
 30
0.0
 10
1800.29468250715
 20
1641.041036522461
 30
0.0
 10
1801.19334176752
 20
1639.754596968361
 30
0.0
 10
1801.885297732226
 20
1638.270970467713
 30
0.0
 10
1802.289777158122
 20
1636.707699661689
 30
0.0
 10
1802.661010600902
 20
1635.272921113859
 30
0.0
 10
1802.796376028236
 20
1633.721876849181
 30
0.0
 10
1802.67267674695
 20
1632.228394960498
 30
0.0
 10
1802.567382436298
 20
1630.957125278801
 30
0.0
 10
1802.275511303171
 20
1629.694330343072
 30
0.0
 10
1801.829027059048
 20
1628.528453460524
 30
0.0
 10
1801.36361852397
 20
1627.313160739367
 30
0.0
 10
1800.721792174976
 20
1626.172418800517
 30
0.0
 10
1799.945913666159
 20
1625.159549095174
 30
0.0
 10
1799.044033359222
 20
1623.982190487652
 30
0.0
 10
1797.936715545557
 20
1622.946267755554
 30
0.0
 10
1796.689954655774
 20
1622.121402053585
 30
0.0
 10
1795.377898062292
 20
1621.253336258555
 30
0.0
 10
1793.865432503473
 20
1620.595534373286
 30
0.0
 10
1792.289833972041
 20
1620.232327438303
 30
0.0
 10
1790.877094008066
 20
1619.906662656312
 30
0.0
 10
1789.37025442018
 20
1619.81014970156
 30
0.0
 10
1787.919214052945
 20
1619.956462427547
 30
0.0
 10
1786.601031262301
 20
1620.089378728019
 30
0.0
 10
1785.293845720016
 20
1620.42366543555
 30
0.0
 10
1784.093355580181
 20
1620.924112855726
 30
0.0
 10
1782.852564433746
 20
1621.441360526161
 30
0.0
 10
1781.69437567801
 20
1622.146330075318
 30
0.0
 10
1780.68118231561
 20
1622.986832521242
 30
0.0
 10
1779.549367240693
 20
1623.925738532773
 30
0.0
 10
1778.568124413117
 20
1625.057416766582
 30
0.0
 10
1777.79797473935
 20
1626.315227574553
 30
0.0
 10
1776.975250188217
 20
1627.658903833402
 30
0.0
 10
1776.369736989647
 20
1629.19604461954
 30
0.0
 10
1776.062066567108
 20
1630.790933622417
 30
0.0
 10
1775.901375305019
 20
1631.623918231891
 30
0.0
 10
1775.818575323578
 20
1632.483831552337
 30
0.0
 10
1775.818575323578
 20
1633.338604414587
 30
0.0
  0
POINT
  5
715DB
330
71899
100
AcDbEntity
  8
Level 25
  6
Continuous
 62
   253
370
    13
100
AcDbPoint
 10
1789.268575
 20
1646.788604
 30
0.0
  0
POINT
  5
715DC
330
71899
100
AcDbEntity
  8
Level 25
  6
Continuous
 62
   253
370
    13
100
AcDbPoint
 10
1802.718575
 20
1633.338604
 30
0.0
  0
POINT
  5
715DD
330
71899
100
AcDbEntity
  8
Level 25
  6
Continuous
 62
   253
370
    13
100
AcDbPoint
 10
1789.268575
 20
1619.888604
 30
0.0
  0
POINT
  5
715DE
330
71899
100
AcDbEntity
  8
Level 25
  6
Continuous
 62
   253
370
    13
100
AcDbPoint
 10
1775.818575
 20
1633.338604
 30
0.0
  0
ENDBLK
  5
7189B
330
71899
100
AcDbEntity
  8
0
 62
    98
370
     0
100
AcDbBlockEnd
  0
BLOCK
  5
7189D
330
7189C
100
AcDbEntity
  8
0
 62
    98
370
     0
100
AcDbBlockBegin
  2
Feature Solid_52
 70
     0
 10
0.0
 20
0.0
 30
0.0
  3
Feature Solid_52
  1

  0
INSERT
  5
715E0
330
7189C
100
AcDbEntity
  8
Level 25
  6
Continuous
 62
   253
370
    13
100
AcDbBlockReference
  2
TORUS
 10
0.0
 20
0.0
 30
0.0
  0
ENDBLK
  5
7189E
330
7189C
100
AcDbEntity
  8
0
 62
    98
370
     0
100
AcDbBlockEnd
  0
BLOCK
  5
718A0
330
7189F
100
AcDbEntity
  8
0
 62
    98
370
     0
100
AcDbBlockBegin
  2
TORUS
 70
     0
 10
0.0
 20
0.0
 30
0.0
  3
TORUS
  1

  0
ARC
  5
715E1
330
7189F
100
AcDbEntity
  8
Level 25
  6
Continuous
 62
   253
370
    13
100
AcDbCircle
 10
-1789.268575
 20
1633.338604
 30
0.0
 40
13.44999999999999
210
0.0
220
0.0
230
-1.0
100
AcDbArc
 50
0.0
 51
359.999994
  0
LINE
  5
715E2
330
7189F
100
AcDbEntity
  8
Level 25
  6
Continuous
 62
   253
370
    13
100
AcDbLine
 10
1775.818575
 20
1633.338604
 30
0.0
 11
1775.818575
 21
1703.338604
 31
0.0
  0
LINE
  5
715E3
330
7189F
100
AcDbEntity
  8
Level 25
  6
Continuous
 62
   253
370
    13
100
AcDbLine
 10
1789.268575
 20
1619.888604
 30
0.0
 11
1789.268575
 21
1703.338604
 31
0.0
  0
LINE
  5
715E4
330
7189F
100
AcDbEntity
  8
Level 25
  6
Continuous
 62
   253
370
    13
100
AcDbLine
 10
1802.718575
 20
1633.338604
 30
0.0
 11
1802.718575
 21
1703.338604
 31
0.0
  0
LINE
  5
715E5
330
7189F
100
AcDbEntity
  8
Level 25
  6
Continuous
 62
   253
370
    13
100
AcDbLine
 10
1789.268575
 20
1646.788604
 30
0.0
 11
1789.268575
 21
1703.338604
 31
0.0
  0
ENDBLK
  5
718A1
330
7189F
100
AcDbEntity
  8
0
 62
    98
370
     0
100
AcDbBlockEnd
  0
BLOCK
  5
718A3
330
718A2
100
AcDbEntity
  8
0
 62
    98
370
     0
100
AcDbBlockBegin
  2
Feature Solid_53
 70
     0
 10
0.0
 20
0.0
 30
0.0
  3
Feature Solid_53
  1

  0
INSERT
  5
715E7
330
718A2
100
AcDbEntity
  8
Level 25
  6
Continuous
 62
   253
370
    13
100
AcDbBlockReference
  2
DDPROJ_1
 10
0.0
 20
0.0
 30
0.0
  0
ENDBLK
  5
718A4
330
718A2
100
AcDbEntity
  8
0
 62
    98
370
     0
100
AcDbBlockEnd
  0
BLOCK
  5
718A6
330
718A5
100
AcDbEntity
  8
0
 62
    98
370
     0
100
AcDbBlockBegin
  2
DDPROJ_1
 70
     0
 10
0.0
 20
0.0
 30
0.0
  3
DDPROJ_1
  1

  0
LINE
  5
715E8
330
718A5
100
AcDbEntity
  8
Level 25
  6
Continuous
 62
   253
370
    13
100
AcDbLine
 10
1802.718575
 20
1703.338604
 30
0.0
 11
1775.818575
 21
1703.338604
 31
0.0
  0
LINE
  5
715E9
330
718A5
100
AcDbEntity
  8
Level 25
  6
Continuous
 62
   253
370
    13
100
AcDbLine
 10
1789.268575
 20
1703.338604
 30
0.0
 11
1789.268575
 21
2070.338604
 31
0.0
  0
LINE
  5
715EA
330
718A5
100
AcDbEntity
  8
Level 25
  6
Continuous
 62
   253
370
    13
100
AcDbLine
 10
1802.718575
 20
1703.338604
 30
0.0
 11
1802.718575
 21
2070.338604
 31
0.0
  0
LINE
  5
715EB
330
718A5
100
AcDbEntity
  8
Level 25
  6
Continuous
 62
   253
370
    13
100
AcDbLine
 10
1789.268575
 20
1703.338604
 30
0.0
 11
1789.268575
 21
2070.338604
 31
0.0
  0
LINE
  5
715EC
330
718A5
100
AcDbEntity
  8
Level 25
  6
Continuous
 62
   253
370
    13
100
AcDbLine
 10
1775.818575
 20
1703.338604
 30
0.0
 11
1775.818575
 21
2070.338604
 31
0.0
  0
ENDBLK
  5
718A7
330
718A5
100
AcDbEntity
  8
0
 62
    98
370
     0
100
AcDbBlockEnd
  0
BLOCK
  5
718A9
330
718A8
100
AcDbEntity
  8
0
 62
    98
370
     0
100
AcDbBlockBegin
  2
Feature Solid_54
 70
     0
 10
0.0
 20
0.0
 30
0.0
  3
Feature Solid_54
  1

  0
INSERT
  5
715EE
330
718A8
100
AcDbEntity
  8
Level 25
  6
Continuous
 62
   253
370
    13
100
AcDbBlockReference
  2
TORUS_1
 10
0.0
 20
0.0
 30
0.0
  0
ENDBLK
  5
718AA
330
718A8
100
AcDbEntity
  8
0
 62
    98
370
     0
100
AcDbBlockEnd
  0
BLOCK
  5
718AC
330
718AB
100
AcDbEntity
  8
0
 62
    98
370
     0
100
AcDbBlockBegin
  2
TORUS_1
 70
     0
 10
0.0
 20
0.0
 30
0.0
  3
TORUS_1
  1

  0
LINE
  5
715EF
330
718AB
100
AcDbEntity
  8
Level 25
  6
Continuous
 62
   253
370
    13
100
AcDbLine
 10
1802.718575
 20
2070.338604
 30
0.0
 11
1775.818575
 21
2070.338604
 31
0.0
  0
LINE
  5
715F0
330
718AB
100
AcDbEntity
  8
Level 25
  6
Continuous
 62
   253
370
    13
100
AcDbLine
 10
1775.818575
 20
2070.338604
 30
0.0
 11
1775.818575
 21
2140.338604
 31
0.0
  0
LINE
  5
715F1
330
718AB
100
AcDbEntity
  8
Level 25
  6
Continuous
 62
   253
370
    13
100
AcDbLine
 10
1789.268575
 20
2070.338604
 30
0.0
 11
1789.268575
 21
2153.788604
 31
0.0
  0
LINE
  5
715F2
330
718AB
100
AcDbEntity
  8
Level 25
  6
Continuous
 62
   253
370
    13
100
AcDbLine
 10
1802.718575
 20
2070.338604
 30
0.0
 11
1802.718575
 21
2140.338604
 31
0.0
  0
LINE
  5
715F3
330
718AB
100
AcDbEntity
  8
Level 25
  6
Continuous
 62
   253
370
    13
100
AcDbLine
 10
1789.268575
 20
2070.338604
 30
0.0
 11
1789.268575
 21
2126.888604
 31
0.0
  0
ENDBLK
  5
718AD
330
718AB
100
AcDbEntity
  8
0
 62
    98
370
     0
100
AcDbBlockEnd
  0
BLOCK
  5
718AF
330
718AE
100
AcDbEntity
  8
0
 62
    98
370
     0
100
AcDbBlockBegin
  2
Feature Solid_55
 70
     0
 10
0.0
 20
0.0
 30
0.0
  3
Feature Solid_55
  1

  0
INSERT
  5
715F5
330
718AE
100
AcDbEntity
  8
Level 25
  6
Continuous
 62
   253
370
    13
100
AcDbBlockReference
  2
DDPROJ_2
 10
0.0
 20
0.0
 30
0.0
  0
ENDBLK
  5
718B0
330
718AE
100
AcDbEntity
  8
0
 62
    98
370
     0
100
AcDbBlockEnd
  0
BLOCK
  5
718B2
330
718B1
100
AcDbEntity
  8
0
 62
    98
370
     0
100
AcDbBlockBegin
  2
DDPROJ_2
 70
     0
 10
0.0
 20
0.0
 30
0.0
  3
DDPROJ_2
  1

  0
ARC
  5
715F6
330
718B1
100
AcDbEntity
  8
Level 25
  6
Continuous
 62
   253
370
    13
100
AcDbCircle
 10
1789.268575
 20
2140.338604
 30
0.0
 40
13.45
100
AcDbArc
 50
0.0
 51
359.999994
  0
SPLINE
  5
715F7
330
718B1
100
AcDbEntity
  8
Level 25
  6
Continuous
 62
   253
370
    13
100
AcDbSpline
210
0.0
220
0.0
230
1.0
 70
     9
 71
     3
 72
    65
 73
    61
 74
     0
 42
0.000000001
 43
0.0000000001
 40
0.0
 40
0.0
 40
0.0
 40
0.0
 40
0.0478874748942771
 40
0.0478874748942771
 40
0.0478874748942771
 40
0.0954231915822428
 40
0.0954231915822428
 40
0.0954231915822428
 40
0.1479430513843591
 40
0.1479430513843591
 40
0.1479430513843591
 40
0.2052621310094699
 40
0.2052621310094699
 40
0.2052621310094699
 40
0.2576563374432026
 40
0.2576563374432026
 40
0.2576563374432026
 40
0.3042938191004627
 40
0.3042938191004627
 40
0.3042938191004627
 40
0.3513745452954855
 40
0.3513745452954855
 40
0.3513745452954855
 40
0.4036870666662904
 40
0.4036870666662904
 40
0.4036870666662904
 40
0.4609144159546272
 40
0.4609144159546272
 40
0.4609144159546272
 40
0.5134920645150847
 40
0.5134920645150847
 40
0.5134920645150847
 40
0.5579494996308157
 40
0.5579494996308157
 40
0.5579494996308157
 40
0.6042220120771075
 40
0.6042220120771075
 40
0.6042220120771075
 40
0.6581550545996125
 40
0.6581550545996125
 40
0.6581550545996125
 40
0.715137873874678
 40
0.715137873874678
 40
0.715137873874678
 40
0.7661466338033232
 40
0.7661466338033232
 40
0.7661466338033232
 40
0.8123078588329411
 40
0.8123078588329411
 40
0.8123078588329411
 40
0.8599668332764801
 40
0.8599668332764801
 40
0.8599668332764801
 40
0.91328862375591
 40
0.91328862375591
 40
0.91328862375591
 40
0.970510928958504
 40
0.970510928958504
 40
0.970510928958504
 40
1.0
 40
1.0
 40
1.0
 40
1.0
 10
1802.718575323578
 20
2140.338604414588
 30
0.0
 10
1802.718575323578
 20
2138.968391448918
 30
0.0
 10
1802.501262636661
 20
2137.579632359126
 30
0.0
 10
1802.096437230374
 20
2136.295281659706
 30
0.0
 10
1801.693337609165
 20
2135.016406192899
 30
0.0
 10
1801.097742764547
 20
2133.804940487335
 30
0.0
 10
1800.356352464728
 20
2132.725215020355
 30
0.0
 10
1799.538067071542
 20
2131.533503207433
 30
0.0
 10
1798.521299735297
 20
2130.470038653095
 30
0.0
 10
1797.364353645094
 20
2129.59798649154
 30
0.0
 10
1796.107079767924
 20
2128.650311909694
 30
0.0
 10
1794.641081956215
 20
2127.902560780007
 30
0.0
 10
1793.090188247382
 20
2127.44295496756
 30
0.0
 10
1791.671869287531
 20
2127.022637550489
 30
0.0
 10
1790.137290856875
 20
2126.833565219985
 30
0.0
 10
1788.642832510527
 20
2126.903168212815
 30
0.0
 10
1787.30718192023
 20
2126.965374883672
 30
0.0
 10
1785.967539992362
 20
2127.233694196535
 30
0.0
 10
1784.7283733944
 20
2127.678072572483
 30
0.0
 10
1783.475443730514
 20
2128.127386530858
 30
0.0
 10
1782.293424077831
 20
2128.765185045662
 30
0.0
 10
1781.248504318684
 20
2129.54133804354
 30
0.0
 10
1780.08871485829
 20
2130.402814782509
 30
0.0
 10
1779.067382509313
 20
2131.455299288188
 30
0.0
 10
1778.242468140006
 20
2132.636172306716
 30
0.0
 10
1777.34380887964
 20
2133.922611860814
 30
0.0
 10
1776.651852914929
 20
2135.406238361462
 30
0.0
 10
1776.247373489033
 20
2136.969509167487
 30
0.0
 10
1775.876140046257
 20
2138.404287715316
 30
0.0
 10
1775.740774618923
 20
2139.955331979994
 30
0.0
 10
1775.864473900206
 20
2141.448813868677
 30
0.0
 10
1775.969768210862
 20
2142.720083550375
 30
0.0
 10
1776.261639343988
 20
2143.982878486104
 30
0.0
 10
1776.708123588107
 20
2145.148755368652
 30
0.0
 10
1777.173532123185
 20
2146.364048089809
 30
0.0
 10
1777.815358472183
 20
2147.504790028659
 30
0.0
 10
1778.591236980997
 20
2148.517659734002
 30
0.0
 10
1779.493117287938
 20
2149.695018341523
 30
0.0
 10
1780.600435101598
 20
2150.730941073621
 30
0.0
 10
1781.847195991385
 20
2151.555806775592
 30
0.0
 10
1783.159252584863
 20
2152.42387257062
 30
0.0
 10
1784.671718143682
 20
2153.08167445589
 30
0.0
 10
1786.247316675115
 20
2153.444881390873
 30
0.0
 10
1787.66005663909
 20
2153.770546172864
 30
0.0
 10
1789.166896226976
 20
2153.867059127616
 30
0.0
 10
1790.61793659421
 20
2153.720746401629
 30
0.0
 10
1791.936119384859
 20
2153.587830101156
 30
0.0
 10
1793.24330492714
 20
2153.253543393626
 30
0.0
 10
1794.443795066975
 20
2152.75309597345
 30
0.0
 10
1795.68458621341
 20
2152.235848303015
 30
0.0
 10
1796.842774969146
 20
2151.530878753858
 30
0.0
 10
1797.855968331545
 20
2150.690376307934
 30
0.0
 10
1798.987783406466
 20
2149.751470296402
 30
0.0
 10
1799.969026234038
 20
2148.619792062595
 30
0.0
 10
1800.739175907805
 20
2147.361981254622
 30
0.0
 10
1801.56190045894
 20
2146.018304995774
 30
0.0
 10
1802.167413657508
 20
2144.481164209636
 30
0.0
 10
1802.475084080048
 20
2142.886275206759
 30
0.0
 10
1802.63577534214
 20
2142.053290597284
 30
0.0
 10
1802.718575323578
 20
2141.193377276839
 30
0.0
 10
1802.718575323578
 20
2140.338604414588
 30
0.0
  0
POINT
  5
715FA
330
718B1
100
AcDbEntity
  8
Level 25
  6
Continuous
 62
   253
370
    13
100
AcDbPoint
 10
1789.268575
 20
2153.788604
 30
0.0
  0
POINT
  5
715FB
330
718B1
100
AcDbEntity
  8
Level 25
  6
Continuous
 62
   253
370
    13
100
AcDbPoint
 10
1775.818575
 20
2140.338604
 30
0.0
  0
POINT
  5
715FC
330
718B1
100
AcDbEntity
  8
Level 25
  6
Continuous
 62
   253
370
    13
100
AcDbPoint
 10
1789.268575
 20
2126.888604
 30
0.0
  0
POINT
  5
715FD
330
718B1
100
AcDbEntity
  8
Level 25
  6
Continuous
 62
   253
370
    13
100
AcDbPoint
 10
1802.718575
 20
2140.338604
 30
0.0
  0
ENDBLK
  5
718B3
330
718B1
100
AcDbEntity
  8
0
 62
    98
370
     0
100
AcDbBlockEnd
  0
BLOCK
  5
718B5
330
718B4
100
AcDbEntity
  8
0
 62
    98
370
     0
100
AcDbBlockBegin
  2
Feature Solid_56
 70
     0
 10
0.0
 20
0.0
 30
0.0
  3
Feature Solid_56
  1

  0
INSERT
  5
71600
330
718B4
100
AcDbEntity
  8
Level 25
  6
Continuous
 62
   253
370
    13
100
AcDbBlockReference
  2
SUBTRC_17
 10
-1789.25
 20
-1691.85
 30
0.0
  0
ENDBLK
  5
718B6
330
718B4
100
AcDbEntity
  8
0
 62
    98
370
     0
100
AcDbBlockEnd
  0
BLOCK
  5
718B8
330
718B7
100
AcDbEntity
  8
0
 62
    98
370
     0
100
AcDbBlockBegin
  2
SUBTRC_17
 70
     0
 10
0.0
 20
0.0
 30
0.0
  3
SUBTRC_17
  1

  0
INSERT
  5
71603
330
718B7
100
AcDbEntity
  8
Level 25
  6
Continuous
 62
   253
370
    13
100
AcDbBlockReference
  2
Feature Solid_57
 10
0.0
 20
0.0
 30
0.0
  0
ENDBLK
  5
718B9
330
718B7
100
AcDbEntity
  8
0
 62
    98
370
     0
100
AcDbBlockEnd
  0
BLOCK
  5
718BB
330
718BA
100
AcDbEntity
  8
0
 62
    98
370
     0
100
AcDbBlockBegin
  2
Feature Solid_57
 70
     0
 10
0.0
 20
0.0
 30
0.0
  3
Feature Solid_57
  1

  0
INSERT
  5
71604
330
718BA
100
AcDbEntity
  8
Level 25
  6
Continuous
 62
   253
370
    13
100
AcDbBlockReference
  2
UNITE_17
 10
0.0
 20
0.0
 30
0.0
  0
ENDBLK
  5
718BC
330
718BA
100
AcDbEntity
  8
0
 62
    98
370
     0
100
AcDbBlockEnd
  0
BLOCK
  5
718BE
330
718BD
100
AcDbEntity
  8
0
 62
    98
370
     0
100
AcDbBlockBegin
  2
UNITE_17
 70
     0
 10
0.0
 20
0.0
 30
0.0
  3
UNITE_17
  1

  0
INSERT
  5
71605
330
718BD
100
AcDbEntity
  8
Level 25
  6
Continuous
 62
   253
370
    13
100
AcDbBlockReference
  2
Feature Solid_58
 10
0.0
 20
-195.0
 30
0.0
  0
INSERT
  5
7160E
330
718BD
100
AcDbEntity
  8
Level 25
  6
Continuous
 62
   253
370
    13
100
AcDbBlockReference
  2
Feature Solid_59
 10
0.0
 20
-195.0
 30
0.0
  0
INSERT
  5
71615
330
718BD
100
AcDbEntity
  8
Level 25
  6
Continuous
 62
   253
370
    13
100
AcDbBlockReference
  2
Feature Solid_60
 10
0.0
 20
-195.0
 30
0.0
  0
INSERT
  5
7161C
330
718BD
100
AcDbEntity
  8
Level 25
  6
Continuous
 62
   253
370
    13
100
AcDbBlockReference
  2
Feature Solid_61
 10
0.0
 20
-195.0
 30
0.0
  0
INSERT
  5
71623
330
718BD
100
AcDbEntity
  8
Level 25
  6
Continuous
 62
   253
370
    13
100
AcDbBlockReference
  2
Feature Solid_62
 10
0.0
 20
-195.0
 30
0.0
  0
ENDBLK
  5
718BF
330
718BD
100
AcDbEntity
  8
0
 62
    98
370
     0
100
AcDbBlockEnd
  0
BLOCK
  5
718C1
330
718C0
100
AcDbEntity
  8
0
 62
    98
370
     0
100
AcDbBlockBegin
  2
Feature Solid_58
 70
     0
 10
0.0
 20
0.0
 30
0.0
  3
Feature Solid_58
  1

  0
INSERT
  5
71606
330
718C0
100
AcDbEntity
  8
Level 25
  6
Continuous
 62
   253
370
    13
100
AcDbBlockReference
  2
DDPROJ_3
 10
0.0
 20
0.0
 30
0.0
  0
ENDBLK
  5
718C2
330
718C0
100
AcDbEntity
  8
0
 62
    98
370
     0
100
AcDbBlockEnd
  0
BLOCK
  5
718C4
330
718C3
100
AcDbEntity
  8
0
 62
    98
370
     0
100
AcDbBlockBegin
  2
DDPROJ_3
 70
     0
 10
0.0
 20
0.0
 30
0.0
  3
DDPROJ_3
  1

  0
SPLINE
  5
71607
330
718C3
100
AcDbEntity
  8
Level 25
  6
Continuous
 62
   253
370
    13
100
AcDbSpline
210
0.0
220
0.0
230
1.0
 70
     9
 71
     3
 72
    65
 73
    61
 74
     0
 42
0.000000001
 43
0.0000000001
 40
0.0
 40
0.0
 40
0.0
 40
0.0
 40
0.0478874748942779
 40
0.0478874748942779
 40
0.0478874748942779
 40
0.0954231915822443
 40
0.0954231915822443
 40
0.0954231915822443
 40
0.1479430513843607
 40
0.1479430513843607
 40
0.1479430513843607
 40
0.2052621310094716
 40
0.2052621310094716
 40
0.2052621310094716
 40
0.257656337443203
 40
0.257656337443203
 40
0.257656337443203
 40
0.3042938191004633
 40
0.3042938191004633
 40
0.3042938191004633
 40
0.3513745452954863
 40
0.3513745452954863
 40
0.3513745452954863
 40
0.4036870666662925
 40
0.4036870666662925
 40
0.4036870666662925
 40
0.46091441595463
 40
0.46091441595463
 40
0.46091441595463
 40
0.5134920645150873
 40
0.5134920645150873
 40
0.5134920645150873
 40
0.5579494996308176
 40
0.5579494996308176
 40
0.5579494996308176
 40
0.6042220120771085
 40
0.6042220120771085
 40
0.6042220120771085
 40
0.6581550545996135
 40
0.6581550545996135
 40
0.6581550545996135
 40
0.7151378738746791
 40
0.7151378738746791
 40
0.7151378738746791
 40
0.7661466338033255
 40
0.7661466338033255
 40
0.7661466338033255
 40
0.8123078588329432
 40
0.8123078588329432
 40
0.8123078588329432
 40
0.8599668332764828
 40
0.8599668332764828
 40
0.8599668332764828
 40
0.9132886237559125
 40
0.9132886237559125
 40
0.9132886237559125
 40
0.9705109289585053
 40
0.9705109289585053
 40
0.9705109289585053
 40
1.0
 40
1.0
 40
1.0
 40
1.0
 10
1775.818575323578
 20
1633.338604414588
 30
0.0
 10
1775.818575323578
 20
1631.968391448918
 30
0.0
 10
1776.035888010494
 20
1630.579632359127
 30
0.0
 10
1776.440713416781
 20
1629.295281659706
 30
0.0
 10
1776.843813037995
 20
1628.016406192899
 30
0.0
 10
1777.439407882612
 20
1626.804940487335
 30
0.0
 10
1778.180798182428
 20
1625.725215020355
 30
0.0
 10
1778.999083575613
 20
1624.533503207433
 30
0.0
 10
1780.015850911863
 20
1623.470038653095
 30
0.0
 10
1781.172797002066
 20
1622.597986491539
 30
0.0
 10
1782.430070879236
 20
1621.650311909693
 30
0.0
 10
1783.89606869094
 20
1620.902560780007
 30
0.0
 10
1785.446962399777
 20
1620.44295496756
 30
0.0
 10
1786.865281359624
 20
1620.022637550489
 30
0.0
 10
1788.399859790284
 20
1619.833565219984
 30
0.0
 10
1789.894318136632
 20
1619.903168212815
 30
0.0
 10
1791.229968726925
 20
1619.965374883672
 30
0.0
 10
1792.569610654794
 20
1620.233694196535
 30
0.0
 10
1793.808777252756
 20
1620.678072572483
 30
0.0
 10
1795.061706916641
 20
1621.127386530857
 30
0.0
 10
1796.243726569325
 20
1621.765185045662
 30
0.0
 10
1797.288646328471
 20
1622.54133804354
 30
0.0
 10
1798.44843578887
 20
1623.402814782509
 30
0.0
 10
1799.469768137846
 20
1624.455299288188
 30
0.0
 10
1800.29468250715
 20
1625.636172306716
 30
0.0
 10
1801.19334176752
 20
1626.922611860814
 30
0.0
 10
1801.885297732226
 20
1628.406238361462
 30
0.0
 10
1802.289777158122
 20
1629.969509167487
 30
0.0
 10
1802.661010600902
 20
1631.404287715317
 30
0.0
 10
1802.796376028236
 20
1632.955331979995
 30
0.0
 10
1802.67267674695
 20
1634.448813868677
 30
0.0
 10
1802.567382436298
 20
1635.720083550375
 30
0.0
 10
1802.275511303171
 20
1636.982878486103
 30
0.0
 10
1801.829027059048
 20
1638.148755368652
 30
0.0
 10
1801.36361852397
 20
1639.364048089809
 30
0.0
 10
1800.721792174976
 20
1640.504790028658
 30
0.0
 10
1799.945913666159
 20
1641.517659734002
 30
0.0
 10
1799.044033359222
 20
1642.695018341523
 30
0.0
 10
1797.936715545557
 20
1643.730941073621
 30
0.0
 10
1796.689954655774
 20
1644.555806775591
 30
0.0
 10
1795.377898062292
 20
1645.42387257062
 30
0.0
 10
1793.865432503473
 20
1646.08167445589
 30
0.0
 10
1792.289833972041
 20
1646.444881390873
 30
0.0
 10
1790.877094008066
 20
1646.770546172864
 30
0.0
 10
1789.37025442018
 20
1646.867059127616
 30
0.0
 10
1787.919214052945
 20
1646.720746401628
 30
0.0
 10
1786.601031262301
 20
1646.587830101156
 30
0.0
 10
1785.293845720016
 20
1646.253543393626
 30
0.0
 10
1784.093355580181
 20
1645.753095973449
 30
0.0
 10
1782.852564433746
 20
1645.235848303015
 30
0.0
 10
1781.69437567801
 20
1644.530878753858
 30
0.0
 10
1780.68118231561
 20
1643.690376307934
 30
0.0
 10
1779.549367240693
 20
1642.751470296402
 30
0.0
 10
1778.568124413117
 20
1641.619792062594
 30
0.0
 10
1777.79797473935
 20
1640.361981254623
 30
0.0
 10
1776.975250188217
 20
1639.018304995774
 30
0.0
 10
1776.369736989647
 20
1637.481164209636
 30
0.0
 10
1776.062066567108
 20
1635.886275206759
 30
0.0
 10
1775.901375305019
 20
1635.053290597284
 30
0.0
 10
1775.818575323578
 20
1634.193377276839
 30
0.0
 10
1775.818575323578
 20
1633.338604414588
 30
0.0
  0
POINT
  5
7160A
330
718C3
100
AcDbEntity
  8
Level 25
  6
Continuous
 62
   253
370
    13
100
AcDbPoint
 10
1789.268575
 20
1619.888604
 30
0.0
  0
POINT
  5
7160B
330
718C3
100
AcDbEntity
  8
Level 25
  6
Continuous
 62
   253
370
    13
100
AcDbPoint
 10
1802.718575
 20
1633.338604
 30
0.0
  0
POINT
  5
7160C
330
718C3
100
AcDbEntity
  8
Level 25
  6
Continuous
 62
   253
370
    13
100
AcDbPoint
 10
1789.268575
 20
1646.788604
 30
0.0
  0
POINT
  5
7160D
330
718C3
100
AcDbEntity
  8
Level 25
  6
Continuous
 62
   253
370
    13
100
AcDbPoint
 10
1775.818575
 20
1633.338604
 30
0.0
  0
ENDBLK
  5
718C5
330
718C3
100
AcDbEntity
  8
0
 62
    98
370
     0
100
AcDbBlockEnd
  0
BLOCK
  5
718C7
330
718C6
100
AcDbEntity
  8
0
 62
    98
370
     0
100
AcDbBlockBegin
  2
Feature Solid_59
 70
     0
 10
0.0
 20
0.0
 30
0.0
  3
Feature Solid_59
  1

  0
INSERT
  5
7160F
330
718C6
100
AcDbEntity
  8
Level 25
  6
Continuous
 62
   253
370
    13
100
AcDbBlockReference
  2
TORUS_2
 10
0.0
 20
0.0
 30
0.0
  0
ENDBLK
  5
718C8
330
718C6
100
AcDbEntity
  8
0
 62
    98
370
     0
100
AcDbBlockEnd
  0
BLOCK
  5
718CA
330
718C9
100
AcDbEntity
  8
0
 62
    98
370
     0
100
AcDbBlockBegin
  2
TORUS_2
 70
     0
 10
0.0
 20
0.0
 30
0.0
  3
TORUS_2
  1

  0
ARC
  5
71610
330
718C9
100
AcDbEntity
  8
Level 25
  6
Continuous
 62
   253
370
    13
100
AcDbCircle
 10
-1789.268575
 20
1633.338604
 30
0.0
 40
13.44999999999999
210
0.0
220
0.0
230
-1.0
100
AcDbArc
 50
0.0
 51
359.999994
  0
LINE
  5
71611
330
718C9
100
AcDbEntity
  8
Level 25
  6
Continuous
 62
   253
370
    13
100
AcDbLine
 10
1775.818575
 20
1703.338604
 30
0.0
 11
1775.818575
 21
1633.338604
 31
0.0
  0
LINE
  5
71612
330
718C9
100
AcDbEntity
  8
Level 25
  6
Continuous
 62
   253
370
    13
100
AcDbLine
 10
1789.268575
 20
1703.338604
 30
0.0
 11
1789.268575
 21
1619.888604
 31
0.0
  0
LINE
  5
71613
330
718C9
100
AcDbEntity
  8
Level 25
  6
Continuous
 62
   253
370
    13
100
AcDbLine
 10
1802.718575
 20
1703.338604
 30
0.0
 11
1802.718575
 21
1633.338604
 31
0.0
  0
LINE
  5
71614
330
718C9
100
AcDbEntity
  8
Level 25
  6
Continuous
 62
   253
370
    13
100
AcDbLine
 10
1789.268575
 20
1703.338604
 30
0.0
 11
1789.268575
 21
1646.788604
 31
0.0
  0
ENDBLK
  5
718CB
330
718C9
100
AcDbEntity
  8
0
 62
    98
370
     0
100
AcDbBlockEnd
  0
BLOCK
  5
718CD
330
718CC
100
AcDbEntity
  8
0
 62
    98
370
     0
100
AcDbBlockBegin
  2
Feature Solid_60
 70
     0
 10
0.0
 20
0.0
 30
0.0
  3
Feature Solid_60
  1

  0
INSERT
  5
71616
330
718CC
100
AcDbEntity
  8
Level 25
  6
Continuous
 62
   253
370
    13
100
AcDbBlockReference
  2
DDPROJ_4
 10
0.0
 20
0.0
 30
0.0
  0
ENDBLK
  5
718CE
330
718CC
100
AcDbEntity
  8
0
 62
    98
370
     0
100
AcDbBlockEnd
  0
BLOCK
  5
718D0
330
718CF
100
AcDbEntity
  8
0
 62
    98
370
     0
100
AcDbBlockBegin
  2
DDPROJ_4
 70
     0
 10
0.0
 20
0.0
 30
0.0
  3
DDPROJ_4
  1

  0
LINE
  5
71617
330
718CF
100
AcDbEntity
  8
Level 25
  6
Continuous
 62
   253
370
    13
100
AcDbLine
 10
1802.718575
 20
1703.338604
 30
0.0
 11
1775.818575
 21
1703.338604
 31
0.0
  0
LINE
  5
71618
330
718CF
100
AcDbEntity
  8
Level 25
  6
Continuous
 62
   253
370
    13
100
AcDbLine
 10
1789.268575
 20
1703.338604
 30
0.0
 11
1789.268575
 21
2070.338604
 31
0.0
  0
LINE
  5
71619
330
718CF
100
AcDbEntity
  8
Level 25
  6
Continuous
 62
   253
370
    13
100
AcDbLine
 10
1802.718575
 20
1703.338604
 30
0.0
 11
1802.718575
 21
2070.338604
 31
0.0
  0
LINE
  5
7161A
330
718CF
100
AcDbEntity
  8
Level 25
  6
Continuous
 62
   253
370
    13
100
AcDbLine
 10
1789.268575
 20
1703.338604
 30
0.0
 11
1789.268575
 21
2070.338604
 31
0.0
  0
LINE
  5
7161B
330
718CF
100
AcDbEntity
  8
Level 25
  6
Continuous
 62
   253
370
    13
100
AcDbLine
 10
1775.818575
 20
1703.338604
 30
0.0
 11
1775.818575
 21
2070.338604
 31
0.0
  0
ENDBLK
  5
718D1
330
718CF
100
AcDbEntity
  8
0
 62
    98
370
     0
100
AcDbBlockEnd
  0
BLOCK
  5
718D3
330
718D2
100
AcDbEntity
  8
0
 62
    98
370
     0
100
AcDbBlockBegin
  2
Feature Solid_61
 70
     0
 10
0.0
 20
0.0
 30
0.0
  3
Feature Solid_61
  1

  0
INSERT
  5
7161D
330
718D2
100
AcDbEntity
  8
Level 25
  6
Continuous
 62
   253
370
    13
100
AcDbBlockReference
  2
TORUS_3
 10
0.0
 20
0.0
 30
0.0
  0
ENDBLK
  5
718D4
330
718D2
100
AcDbEntity
  8
0
 62
    98
370
     0
100
AcDbBlockEnd
  0
BLOCK
  5
718D6
330
718D5
100
AcDbEntity
  8
0
 62
    98
370
     0
100
AcDbBlockBegin
  2
TORUS_3
 70
     0
 10
0.0
 20
0.0
 30
0.0
  3
TORUS_3
  1

  0
LINE
  5
7161E
330
718D5
100
AcDbEntity
  8
Level 25
  6
Continuous
 62
   253
370
    13
100
AcDbLine
 10
1802.718575
 20
2070.338604
 30
0.0
 11
1775.818575
 21
2070.338604
 31
0.0
  0
LINE
  5
7161F
330
718D5
100
AcDbEntity
  8
Level 25
  6
Continuous
 62
   253
370
    13
100
AcDbLine
 10
1775.818575
 20
2140.338604
 30
0.0
 11
1775.818575
 21
2070.338604
 31
0.0
  0
LINE
  5
71620
330
718D5
100
AcDbEntity
  8
Level 25
  6
Continuous
 62
   253
370
    13
100
AcDbLine
 10
1789.268575
 20
2153.788604
 30
0.0
 11
1789.268575
 21
2070.338604
 31
0.0
  0
LINE
  5
71621
330
718D5
100
AcDbEntity
  8
Level 25
  6
Continuous
 62
   253
370
    13
100
AcDbLine
 10
1802.718575
 20
2140.338604
 30
0.0
 11
1802.718575
 21
2070.338604
 31
0.0
  0
LINE
  5
71622
330
718D5
100
AcDbEntity
  8
Level 25
  6
Continuous
 62
   253
370
    13
100
AcDbLine
 10
1789.268575
 20
2126.888604
 30
0.0
 11
1789.268575
 21
2070.338604
 31
0.0
  0
ENDBLK
  5
718D7
330
718D5
100
AcDbEntity
  8
0
 62
    98
370
     0
100
AcDbBlockEnd
  0
BLOCK
  5
718D9
330
718D8
100
AcDbEntity
  8
0
 62
    98
370
     0
100
AcDbBlockBegin
  2
Feature Solid_62
 70
     0
 10
0.0
 20
0.0
 30
0.0
  3
Feature Solid_62
  1

  0
INSERT
  5
71624
330
718D8
100
AcDbEntity
  8
Level 25
  6
Continuous
 62
   253
370
    13
100
AcDbBlockReference
  2
DDPROJ_5
 10
0.0
 20
0.0
 30
0.0
  0
ENDBLK
  5
718DA
330
718D8
100
AcDbEntity
  8
0
 62
    98
370
     0
100
AcDbBlockEnd
  0
BLOCK
  5
718DC
330
718DB
100
AcDbEntity
  8
0
 62
    98
370
     0
100
AcDbBlockBegin
  2
DDPROJ_5
 70
     0
 10
0.0
 20
0.0
 30
0.0
  3
DDPROJ_5
  1

  0
ARC
  5
71625
330
718DB
100
AcDbEntity
  8
Level 25
  6
Continuous
 62
   253
370
    13
100
AcDbCircle
 10
1789.268575
 20
2140.338604
 30
0.0
 40
13.45
100
AcDbArc
 50
0.0
 51
359.999994
  0
SPLINE
  5
71626
330
718DB
100
AcDbEntity
  8
Level 25
  6
Continuous
 62
   253
370
    13
100
AcDbSpline
210
0.0
220
0.0
230
1.0
 70
     9
 71
     3
 72
    65
 73
    61
 74
     0
 42
0.000000001
 43
0.0000000001
 40
0.0
 40
0.0
 40
0.0
 40
0.0
 40
0.0478874748942771
 40
0.0478874748942771
 40
0.0478874748942771
 40
0.0954231915822426
 40
0.0954231915822426
 40
0.0954231915822426
 40
0.147943051384359
 40
0.147943051384359
 40
0.147943051384359
 40
0.2052621310094699
 40
0.2052621310094699
 40
0.2052621310094699
 40
0.2576563374432026
 40
0.2576563374432026
 40
0.2576563374432026
 40
0.3042938191004628
 40
0.3042938191004628
 40
0.3042938191004628
 40
0.3513745452954855
 40
0.3513745452954855
 40
0.3513745452954855
 40
0.4036870666662907
 40
0.4036870666662907
 40
0.4036870666662907
 40
0.4609144159546271
 40
0.4609144159546271
 40
0.4609144159546271
 40
0.5134920645150848
 40
0.5134920645150848
 40
0.5134920645150848
 40
0.5579494996308162
 40
0.5579494996308162
 40
0.5579494996308162
 40
0.6042220120771074
 40
0.6042220120771074
 40
0.6042220120771074
 40
0.6581550545996125
 40
0.6581550545996125
 40
0.6581550545996125
 40
0.715137873874678
 40
0.715137873874678
 40
0.715137873874678
 40
0.7661466338033233
 40
0.7661466338033233
 40
0.7661466338033233
 40
0.8123078588329411
 40
0.8123078588329411
 40
0.8123078588329411
 40
0.85996683327648
 40
0.85996683327648
 40
0.85996683327648
 40
0.9132886237559104
 40
0.9132886237559104
 40
0.9132886237559104
 40
0.970510928958504
 40
0.970510928958504
 40
0.970510928958504
 40
1.0
 40
1.0
 40
1.0
 40
1.0
 10
1802.718575323578
 20
2140.338604414588
 30
0.0
 10
1802.718575323578
 20
2141.708817380258
 30
0.0
 10
1802.501262636661
 20
2143.09757647005
 30
0.0
 10
1802.096437230374
 20
2144.381927169471
 30
0.0
 10
1801.693337609165
 20
2145.660802636278
 30
0.0
 10
1801.097742764547
 20
2146.872268341841
 30
0.0
 10
1800.356352464728
 20
2147.951993808821
 30
0.0
 10
1799.538067071542
 20
2149.143705621744
 30
0.0
 10
1798.521299735297
 20
2150.207170176082
 30
0.0
 10
1797.364353645094
 20
2151.079222337637
 30
0.0
 10
1796.107079767924
 20
2152.026896919483
 30
0.0
 10
1794.641081956215
 20
2152.77464804917
 30
0.0
 10
1793.090188247382
 20
2153.234253861616
 30
0.0
 10
1791.671869287531
 20
2153.654571278687
 30
0.0
 10
1790.137290856875
 20
2153.843643609192
 30
0.0
 10
1788.642832510527
 20
2153.774040616362
 30
0.0
 10
1787.30718192023
 20
2153.711833945505
 30
0.0
 10
1785.967539992362
 20
2153.443514632642
 30
0.0
 10
1784.7283733944
 20
2152.999136256694
 30
0.0
 10
1783.475443730514
 20
2152.54982229832
 30
0.0
 10
1782.293424077831
 20
2151.912023783514
 30
0.0
 10
1781.248504318684
 20
2151.135870785636
 30
0.0
 10
1780.08871485829
 20
2150.274394046668
 30
0.0
 10
1779.067382509313
 20
2149.221909540989
 30
0.0
 10
1778.242468140006
 20
2148.041036522461
 30
0.0
 10
1777.34380887964
 20
2146.754596968362
 30
0.0
 10
1776.651852914929
 20
2145.270970467714
 30
0.0
 10
1776.247373489033
 20
2143.70769966169
 30
0.0
 10
1775.876140046257
 20
2142.27292111386
 30
0.0
 10
1775.740774618923
 20
2140.721876849182
 30
0.0
 10
1775.864473900206
 20
2139.228394960499
 30
0.0
 10
1775.969768210862
 20
2137.957125278802
 30
0.0
 10
1776.261639343988
 20
2136.694330343074
 30
0.0
 10
1776.708123588107
 20
2135.528453460525
 30
0.0
 10
1777.173532123185
 20
2134.313160739368
 30
0.0
 10
1777.815358472183
 20
2133.172418800518
 30
0.0
 10
1778.591236980997
 20
2132.159549095175
 30
0.0
 10
1779.493117287938
 20
2130.982190487653
 30
0.0
 10
1780.600435101598
 20
2129.946267755555
 30
0.0
 10
1781.847195991385
 20
2129.121402053585
 30
0.0
 10
1783.159252584863
 20
2128.253336258556
 30
0.0
 10
1784.671718143682
 20
2127.595534373286
 30
0.0
 10
1786.247316675115
 20
2127.232327438304
 30
0.0
 10
1787.66005663909
 20
2126.906662656313
 30
0.0
 10
1789.166896226976
 20
2126.81014970156
 30
0.0
 10
1790.61793659421
 20
2126.956462427548
 30
0.0
 10
1791.936119384859
 20
2127.08937872802
 30
0.0
 10
1793.24330492714
 20
2127.423665435552
 30
0.0
 10
1794.443795066975
 20
2127.924112855727
 30
0.0
 10
1795.68458621341
 20
2128.441360526161
 30
0.0
 10
1796.842774969146
 20
2129.146330075319
 30
0.0
 10
1797.855968331545
 20
2129.986832521242
 30
0.0
 10
1798.987783406466
 20
2130.925738532774
 30
0.0
 10
1799.969026234038
 20
2132.057416766582
 30
0.0
 10
1800.739175907805
 20
2133.315227574553
 30
0.0
 10
1801.56190045894
 20
2134.658903833402
 30
0.0
 10
1802.167413657508
 20
2136.196044619541
 30
0.0
 10
1802.475084080048
 20
2137.790933622418
 30
0.0
 10
1802.63577534214
 20
2138.623918231893
 30
0.0
 10
1802.718575323578
 20
2139.483831552338
 30
0.0
 10
1802.718575323578
 20
2140.338604414588
 30
0.0
  0
POINT
  5
71629
330
718DB
100
AcDbEntity
  8
Level 25
  6
Continuous
 62
   253
370
    13
100
AcDbPoint
 10
1789.268575
 20
2126.888604
 30
0.0
  0
POINT
  5
7162A
330
718DB
100
AcDbEntity
  8
Level 25
  6
Continuous
 62
   253
370
    13
100
AcDbPoint
 10
1775.818575
 20
2140.338604
 30
0.0
  0
POINT
  5
7162B
330
718DB
100
AcDbEntity
  8
Level 25
  6
Continuous
 62
   253
370
    13
100
AcDbPoint
 10
1789.268575
 20
2153.788604
 30
0.0
  0
POINT
  5
7162C
330
718DB
100
AcDbEntity
  8
Level 25
  6
Continuous
 62
   253
370
    13
100
AcDbPoint
 10
1802.718575
 20
2140.338604
 30
0.0
  0
ENDBLK
  5
718DD
330
718DB
100
AcDbEntity
  8
0
 62
    98
370
     0
100
AcDbBlockEnd
  0
BLOCK
  5
718DF
330
718DE
100
AcDbEntity
  8
0
 62
    98
370
     0
100
AcDbBlockBegin
  2
Feature Solid_63
 70
     0
 10
0.0
 20
0.0
 30
0.0
  3
Feature Solid_63
  1

  0
INSERT
  5
7162F
330
718DE
100
AcDbEntity
  8
Level 25
  6
Continuous
 62
   253
370
    13
100
AcDbBlockReference
  2
SUBTRC_18
 10
-1789.25
 20
-2257.9
 30
0.0
  0
ENDBLK
  5
718E0
330
718DE
100
AcDbEntity
  8
0
 62
    98
370
     0
100
AcDbBlockEnd
  0
BLOCK
  5
718E2
330
718E1
100
AcDbEntity
  8
0
 62
    98
370
     0
100
AcDbBlockBegin
  2
SUBTRC_18
 70
     0
 10
0.0
 20
0.0
 30
0.0
  3
SUBTRC_18
  1

  0
INSERT
  5
71632
330
718E1
100
AcDbEntity
  8
Level 25
  6
Continuous
 62
   253
370
    13
100
AcDbBlockReference
  2
Feature Solid_64
 10
0.0
 20
3949.755742
 30
0.0
 50
180.0
210
0.0
220
0.0
230
-1.0
  0
ENDBLK
  5
718E3
330
718E1
100
AcDbEntity
  8
0
 62
    98
370
     0
100
AcDbBlockEnd
  0
BLOCK
  5
718E5
330
718E4
100
AcDbEntity
  8
0
 62
    98
370
     0
100
AcDbBlockBegin
  2
Feature Solid_64
 70
     0
 10
0.0
 20
0.0
 30
0.0
  3
Feature Solid_64
  1

  0
INSERT
  5
71633
330
718E4
100
AcDbEntity
  8
Level 25
  6
Continuous
 62
   253
370
    13
100
AcDbBlockReference
  2
UNITE_18
 10
0.0
 20
0.0
 30
0.0
  0
ENDBLK
  5
718E6
330
718E4
100
AcDbEntity
  8
0
 62
    98
370
     0
100
AcDbBlockEnd
  0
BLOCK
  5
718E8
330
718E7
100
AcDbEntity
  8
0
 62
    98
370
     0
100
AcDbBlockBegin
  2
UNITE_18
 70
     0
 10
0.0
 20
0.0
 30
0.0
  3
UNITE_18
  1

  0
INSERT
  5
71634
330
718E7
100
AcDbEntity
  8
Level 25
  6
Continuous
 62
   253
370
    13
100
AcDbBlockReference
  2
Feature Solid_65
 10
0.0
 20
-195.0
 30
0.0
  0
INSERT
  5
7163D
330
718E7
100
AcDbEntity
  8
Level 25
  6
Continuous
 62
   253
370
    13
100
AcDbBlockReference
  2
Feature Solid_66
 10
0.0
 20
-195.0
 30
0.0
  0
INSERT
  5
71644
330
718E7
100
AcDbEntity
  8
Level 25
  6
Continuous
 62
   253
370
    13
100
AcDbBlockReference
  2
Feature Solid_67
 10
0.0
 20
-195.0
 30
0.0
  0
INSERT
  5
7164B
330
718E7
100
AcDbEntity
  8
Level 25
  6
Continuous
 62
   253
370
    13
100
AcDbBlockReference
  2
Feature Solid_68
 10
0.0
 20
-195.0
 30
0.0
  0
INSERT
  5
71652
330
718E7
100
AcDbEntity
  8
Level 25
  6
Continuous
 62
   253
370
    13
100
AcDbBlockReference
  2
Feature Solid_69
 10
0.0
 20
-195.0
 30
0.0
  0
ENDBLK
  5
718E9
330
718E7
100
AcDbEntity
  8
0
 62
    98
370
     0
100
AcDbBlockEnd
  0
BLOCK
  5
718EB
330
718EA
100
AcDbEntity
  8
0
 62
    98
370
     0
100
AcDbBlockBegin
  2
Feature Solid_65
 70
     0
 10
0.0
 20
0.0
 30
0.0
  3
Feature Solid_65
  1

  0
INSERT
  5
71635
330
718EA
100
AcDbEntity
  8
Level 25
  6
Continuous
 62
   253
370
    13
100
AcDbBlockReference
  2
DDPROJ_6
 10
0.0
 20
0.0
 30
0.0
  0
ENDBLK
  5
718EC
330
718EA
100
AcDbEntity
  8
0
 62
    98
370
     0
100
AcDbBlockEnd
  0
BLOCK
  5
718EE
330
718ED
100
AcDbEntity
  8
0
 62
    98
370
     0
100
AcDbBlockBegin
  2
DDPROJ_6
 70
     0
 10
0.0
 20
0.0
 30
0.0
  3
DDPROJ_6
  1

  0
SPLINE
  5
71636
330
718ED
100
AcDbEntity
  8
Level 25
  6
Continuous
 62
   253
370
    13
100
AcDbSpline
210
0.0
220
0.0
230
1.0
 70
     9
 71
     3
 72
    65
 73
    61
 74
     0
 42
0.000000001
 43
0.0000000001
 40
0.0
 40
0.0
 40
0.0
 40
0.0
 40
0.0478874748942779
 40
0.0478874748942779
 40
0.0478874748942779
 40
0.0954231915822442
 40
0.0954231915822442
 40
0.0954231915822442
 40
0.1479430513843611
 40
0.1479430513843611
 40
0.1479430513843611
 40
0.2052621310094707
 40
0.2052621310094707
 40
0.2052621310094707
 40
0.2576563374432028
 40
0.2576563374432028
 40
0.2576563374432028
 40
0.3042938191004628
 40
0.3042938191004628
 40
0.3042938191004628
 40
0.3513745452954859
 40
0.3513745452954859
 40
0.3513745452954859
 40
0.4036870666662911
 40
0.4036870666662911
 40
0.4036870666662911
 40
0.4609144159546285
 40
0.4609144159546285
 40
0.4609144159546285
 40
0.5134920645150859
 40
0.5134920645150859
 40
0.5134920645150859
 40
0.5579494996308174
 40
0.5579494996308174
 40
0.5579494996308174
 40
0.6042220120771082
 40
0.6042220120771082
 40
0.6042220120771082
 40
0.6581550545996131
 40
0.6581550545996131
 40
0.6581550545996131
 40
0.7151378738746789
 40
0.7151378738746789
 40
0.7151378738746789
 40
0.7661466338033254
 40
0.7661466338033254
 40
0.7661466338033254
 40
0.8123078588329432
 40
0.8123078588329432
 40
0.8123078588329432
 40
0.8599668332764828
 40
0.8599668332764828
 40
0.8599668332764828
 40
0.9132886237559125
 40
0.9132886237559125
 40
0.9132886237559125
 40
0.9705109289585053
 40
0.9705109289585053
 40
0.9705109289585053
 40
1.0
 40
1.0
 40
1.0
 40
1.0
 10
1775.818575323578
 20
1633.338604414587
 30
0.0
 10
1775.818575323578
 20
1634.708817380257
 30
0.0
 10
1776.035888010494
 20
1636.09757647005
 30
0.0
 10
1776.440713416781
 20
1637.38192716947
 30
0.0
 10
1776.843813037995
 20
1638.660802636277
 30
0.0
 10
1777.439407882612
 20
1639.87226834184
 30
0.0
 10
1778.180798182428
 20
1640.95199380882
 30
0.0
 10
1778.999083575613
 20
1642.143705621743
 30
0.0
 10
1780.015850911863
 20
1643.207170176081
 30
0.0
 10
1781.172797002066
 20
1644.079222337636
 30
0.0
 10
1782.430070879236
 20
1645.026896919482
 30
0.0
 10
1783.89606869094
 20
1645.774648049169
 30
0.0
 10
1785.446962399777
 20
1646.234253861615
 30
0.0
 10
1786.865281359624
 20
1646.654571278687
 30
0.0
 10
1788.399859790284
 20
1646.843643609192
 30
0.0
 10
1789.894318136632
 20
1646.774040616361
 30
0.0
 10
1791.229968726925
 20
1646.711833945503
 30
0.0
 10
1792.569610654794
 20
1646.443514632641
 30
0.0
 10
1793.808777252756
 20
1645.999136256693
 30
0.0
 10
1795.061706916641
 20
1645.549822298319
 30
0.0
 10
1796.243726569325
 20
1644.912023783513
 30
0.0
 10
1797.288646328471
 20
1644.135870785635
 30
0.0
 10
1798.44843578887
 20
1643.274394046667
 30
0.0
 10
1799.469768137846
 20
1642.221909540988
 30
0.0
 10
1800.29468250715
 20
1641.041036522461
 30
0.0
 10
1801.19334176752
 20
1639.754596968361
 30
0.0
 10
1801.885297732226
 20
1638.270970467713
 30
0.0
 10
1802.289777158122
 20
1636.707699661689
 30
0.0
 10
1802.661010600902
 20
1635.272921113859
 30
0.0
 10
1802.796376028236
 20
1633.721876849181
 30
0.0
 10
1802.67267674695
 20
1632.228394960498
 30
0.0
 10
1802.567382436298
 20
1630.957125278801
 30
0.0
 10
1802.275511303171
 20
1629.694330343072
 30
0.0
 10
1801.829027059048
 20
1628.528453460524
 30
0.0
 10
1801.36361852397
 20
1627.313160739367
 30
0.0
 10
1800.721792174976
 20
1626.172418800517
 30
0.0
 10
1799.945913666159
 20
1625.159549095174
 30
0.0
 10
1799.044033359222
 20
1623.982190487652
 30
0.0
 10
1797.936715545557
 20
1622.946267755554
 30
0.0
 10
1796.689954655774
 20
1622.121402053585
 30
0.0
 10
1795.377898062292
 20
1621.253336258555
 30
0.0
 10
1793.865432503473
 20
1620.595534373286
 30
0.0
 10
1792.289833972041
 20
1620.232327438303
 30
0.0
 10
1790.877094008066
 20
1619.906662656312
 30
0.0
 10
1789.37025442018
 20
1619.81014970156
 30
0.0
 10
1787.919214052945
 20
1619.956462427547
 30
0.0
 10
1786.601031262301
 20
1620.089378728019
 30
0.0
 10
1785.293845720016
 20
1620.42366543555
 30
0.0
 10
1784.093355580181
 20
1620.924112855726
 30
0.0
 10
1782.852564433746
 20
1621.441360526161
 30
0.0
 10
1781.69437567801
 20
1622.146330075318
 30
0.0
 10
1780.68118231561
 20
1622.986832521242
 30
0.0
 10
1779.549367240693
 20
1623.925738532773
 30
0.0
 10
1778.568124413117
 20
1625.057416766582
 30
0.0
 10
1777.79797473935
 20
1626.315227574553
 30
0.0
 10
1776.975250188217
 20
1627.658903833402
 30
0.0
 10
1776.369736989647
 20
1629.19604461954
 30
0.0
 10
1776.062066567108
 20
1630.790933622417
 30
0.0
 10
1775.901375305019
 20
1631.623918231891
 30
0.0
 10
1775.818575323578
 20
1632.483831552337
 30
0.0
 10
1775.818575323578
 20
1633.338604414587
 30
0.0
  0
POINT
  5
71639
330
718ED
100
AcDbEntity
  8
Level 25
  6
Continuous
 62
   253
370
    13
100
AcDbPoint
 10
1789.268575
 20
1646.788604
 30
0.0
  0
POINT
  5
7163A
330
718ED
100
AcDbEntity
  8
Level 25
  6
Continuous
 62
   253
370
    13
100
AcDbPoint
 10
1802.718575
 20
1633.338604
 30
0.0
  0
POINT
  5
7163B
330
718ED
100
AcDbEntity
  8
Level 25
  6
Continuous
 62
   253
370
    13
100
AcDbPoint
 10
1789.268575
 20
1619.888604
 30
0.0
  0
POINT
  5
7163C
330
718ED
100
AcDbEntity
  8
Level 25
  6
Continuous
 62
   253
370
    13
100
AcDbPoint
 10
1775.818575
 20
1633.338604
 30
0.0
  0
ENDBLK
  5
718EF
330
718ED
100
AcDbEntity
  8
0
 62
    98
370
     0
100
AcDbBlockEnd
  0
BLOCK
  5
718F1
330
718F0
100
AcDbEntity
  8
0
 62
    98
370
     0
100
AcDbBlockBegin
  2
Feature Solid_66
 70
     0
 10
0.0
 20
0.0
 30
0.0
  3
Feature Solid_66
  1

  0
INSERT
  5
7163E
330
718F0
100
AcDbEntity
  8
Level 25
  6
Continuous
 62
   253
370
    13
100
AcDbBlockReference
  2
TORUS_4
 10
0.0
 20
0.0
 30
0.0
  0
ENDBLK
  5
718F2
330
718F0
100
AcDbEntity
  8
0
 62
    98
370
     0
100
AcDbBlockEnd
  0
BLOCK
  5
718F4
330
718F3
100
AcDbEntity
  8
0
 62
    98
370
     0
100
AcDbBlockBegin
  2
TORUS_4
 70
     0
 10
0.0
 20
0.0
 30
0.0
  3
TORUS_4
  1

  0
ARC
  5
7163F
330
718F3
100
AcDbEntity
  8
Level 25
  6
Continuous
 62
   253
370
    13
100
AcDbCircle
 10
-1789.268575
 20
1633.338604
 30
0.0
 40
13.44999999999999
210
0.0
220
0.0
230
-1.0
100
AcDbArc
 50
0.0
 51
359.999994
  0
LINE
  5
71640
330
718F3
100
AcDbEntity
  8
Level 25
  6
Continuous
 62
   253
370
    13
100
AcDbLine
 10
1775.818575
 20
1633.338604
 30
0.0
 11
1775.818575
 21
1703.338604
 31
0.0
  0
LINE
  5
71641
330
718F3
100
AcDbEntity
  8
Level 25
  6
Continuous
 62
   253
370
    13
100
AcDbLine
 10
1789.268575
 20
1619.888604
 30
0.0
 11
1789.268575
 21
1703.338604
 31
0.0
  0
LINE
  5
71642
330
718F3
100
AcDbEntity
  8
Level 25
  6
Continuous
 62
   253
370
    13
100
AcDbLine
 10
1802.718575
 20
1633.338604
 30
0.0
 11
1802.718575
 21
1703.338604
 31
0.0
  0
LINE
  5
71643
330
718F3
100
AcDbEntity
  8
Level 25
  6
Continuous
 62
   253
370
    13
100
AcDbLine
 10
1789.268575
 20
1646.788604
 30
0.0
 11
1789.268575
 21
1703.338604
 31
0.0
  0
ENDBLK
  5
718F5
330
718F3
100
AcDbEntity
  8
0
 62
    98
370
     0
100
AcDbBlockEnd
  0
BLOCK
  5
718F7
330
718F6
100
AcDbEntity
  8
0
 62
    98
370
     0
100
AcDbBlockBegin
  2
Feature Solid_67
 70
     0
 10
0.0
 20
0.0
 30
0.0
  3
Feature Solid_67
  1

  0
INSERT
  5
71645
330
718F6
100
AcDbEntity
  8
Level 25
  6
Continuous
 62
   253
370
    13
100
AcDbBlockReference
  2
DDPROJ_7
 10
0.0
 20
0.0
 30
0.0
  0
ENDBLK
  5
718F8
330
718F6
100
AcDbEntity
  8
0
 62
    98
370
     0
100
AcDbBlockEnd
  0
BLOCK
  5
718FA
330
718F9
100
AcDbEntity
  8
0
 62
    98
370
     0
100
AcDbBlockBegin
  2
DDPROJ_7
 70
     0
 10
0.0
 20
0.0
 30
0.0
  3
DDPROJ_7
  1

  0
LINE
  5
71646
330
718F9
100
AcDbEntity
  8
Level 25
  6
Continuous
 62
   253
370
    13
100
AcDbLine
 10
1802.718575
 20
1703.338604
 30
0.0
 11
1775.818575
 21
1703.338604
 31
0.0
  0
LINE
  5
71647
330
718F9
100
AcDbEntity
  8
Level 25
  6
Continuous
 62
   253
370
    13
100
AcDbLine
 10
1789.268575
 20
1703.338604
 30
0.0
 11
1789.268575
 21
2070.338604
 31
0.0
  0
LINE
  5
71648
330
718F9
100
AcDbEntity
  8
Level 25
  6
Continuous
 62
   253
370
    13
100
AcDbLine
 10
1802.718575
 20
1703.338604
 30
0.0
 11
1802.718575
 21
2070.338604
 31
0.0
  0
LINE
  5
71649
330
718F9
100
AcDbEntity
  8
Level 25
  6
Continuous
 62
   253
370
    13
100
AcDbLine
 10
1789.268575
 20
1703.338604
 30
0.0
 11
1789.268575
 21
2070.338604
 31
0.0
  0
LINE
  5
7164A
330
718F9
100
AcDbEntity
  8
Level 25
  6
Continuous
 62
   253
370
    13
100
AcDbLine
 10
1775.818575
 20
1703.338604
 30
0.0
 11
1775.818575
 21
2070.338604
 31
0.0
  0
ENDBLK
  5
718FB
330
718F9
100
AcDbEntity
  8
0
 62
    98
370
     0
100
AcDbBlockEnd
  0
BLOCK
  5
718FD
330
718FC
100
AcDbEntity
  8
0
 62
    98
370
     0
100
AcDbBlockBegin
  2
Feature Solid_68
 70
     0
 10
0.0
 20
0.0
 30
0.0
  3
Feature Solid_68
  1

  0
INSERT
  5
7164C
330
718FC
100
AcDbEntity
  8
Level 25
  6
Continuous
 62
   253
370
    13
100
AcDbBlockReference
  2
TORUS_5
 10
0.0
 20
0.0
 30
0.0
  0
ENDBLK
  5
718FE
330
718FC
100
AcDbEntity
  8
0
 62
    98
370
     0
100
AcDbBlockEnd
  0
BLOCK
  5
71900
330
718FF
100
AcDbEntity
  8
0
 62
    98
370
     0
100
AcDbBlockBegin
  2
TORUS_5
 70
     0
 10
0.0
 20
0.0
 30
0.0
  3
TORUS_5
  1

  0
LINE
  5
7164D
330
718FF
100
AcDbEntity
  8
Level 25
  6
Continuous
 62
   253
370
    13
100
AcDbLine
 10
1802.718575
 20
2070.338604
 30
0.0
 11
1775.818575
 21
2070.338604
 31
0.0
  0
LINE
  5
7164E
330
718FF
100
AcDbEntity
  8
Level 25
  6
Continuous
 62
   253
370
    13
100
AcDbLine
 10
1775.818575
 20
2070.338604
 30
0.0
 11
1775.818575
 21
2140.338604
 31
0.0
  0
LINE
  5
7164F
330
718FF
100
AcDbEntity
  8
Level 25
  6
Continuous
 62
   253
370
    13
100
AcDbLine
 10
1789.268575
 20
2070.338604
 30
0.0
 11
1789.268575
 21
2153.788604
 31
0.0
  0
LINE
  5
71650
330
718FF
100
AcDbEntity
  8
Level 25
  6
Continuous
 62
   253
370
    13
100
AcDbLine
 10
1802.718575
 20
2070.338604
 30
0.0
 11
1802.718575
 21
2140.338604
 31
0.0
  0
LINE
  5
71651
330
718FF
100
AcDbEntity
  8
Level 25
  6
Continuous
 62
   253
370
    13
100
AcDbLine
 10
1789.268575
 20
2070.338604
 30
0.0
 11
1789.268575
 21
2126.888604
 31
0.0
  0
ENDBLK
  5
71901
330
718FF
100
AcDbEntity
  8
0
 62
    98
370
     0
100
AcDbBlockEnd
  0
BLOCK
  5
71903
330
71902
100
AcDbEntity
  8
0
 62
    98
370
     0
100
AcDbBlockBegin
  2
Feature Solid_69
 70
     0
 10
0.0
 20
0.0
 30
0.0
  3
Feature Solid_69
  1

  0
INSERT
  5
71653
330
71902
100
AcDbEntity
  8
Level 25
  6
Continuous
 62
   253
370
    13
100
AcDbBlockReference
  2
DDPROJ_8
 10
0.0
 20
0.0
 30
0.0
  0
ENDBLK
  5
71904
330
71902
100
AcDbEntity
  8
0
 62
    98
370
     0
100
AcDbBlockEnd
  0
BLOCK
  5
71906
330
71905
100
AcDbEntity
  8
0
 62
    98
370
     0
100
AcDbBlockBegin
  2
DDPROJ_8
 70
     0
 10
0.0
 20
0.0
 30
0.0
  3
DDPROJ_8
  1

  0
ARC
  5
71654
330
71905
100
AcDbEntity
  8
Level 25
  6
Continuous
 62
   253
370
    13
100
AcDbCircle
 10
1789.268575
 20
2140.338604
 30
0.0
 40
13.45
100
AcDbArc
 50
0.0
 51
359.999994
  0
SPLINE
  5
71655
330
71905
100
AcDbEntity
  8
Level 25
  6
Continuous
 62
   253
370
    13
100
AcDbSpline
210
0.0
220
0.0
230
1.0
 70
     9
 71
     3
 72
    65
 73
    61
 74
     0
 42
0.000000001
 43
0.0000000001
 40
0.0
 40
0.0
 40
0.0
 40
0.0
 40
0.0478874748942771
 40
0.0478874748942771
 40
0.0478874748942771
 40
0.0954231915822428
 40
0.0954231915822428
 40
0.0954231915822428
 40
0.1479430513843591
 40
0.1479430513843591
 40
0.1479430513843591
 40
0.2052621310094699
 40
0.2052621310094699
 40
0.2052621310094699
 40
0.2576563374432026
 40
0.2576563374432026
 40
0.2576563374432026
 40
0.3042938191004627
 40
0.3042938191004627
 40
0.3042938191004627
 40
0.3513745452954855
 40
0.3513745452954855
 40
0.3513745452954855
 40
0.4036870666662904
 40
0.4036870666662904
 40
0.4036870666662904
 40
0.4609144159546272
 40
0.4609144159546272
 40
0.4609144159546272
 40
0.5134920645150847
 40
0.5134920645150847
 40
0.5134920645150847
 40
0.5579494996308157
 40
0.5579494996308157
 40
0.5579494996308157
 40
0.6042220120771075
 40
0.6042220120771075
 40
0.6042220120771075
 40
0.6581550545996125
 40
0.6581550545996125
 40
0.6581550545996125
 40
0.715137873874678
 40
0.715137873874678
 40
0.715137873874678
 40
0.7661466338033232
 40
0.7661466338033232
 40
0.7661466338033232
 40
0.8123078588329411
 40
0.8123078588329411
 40
0.8123078588329411
 40
0.8599668332764801
 40
0.8599668332764801
 40
0.8599668332764801
 40
0.91328862375591
 40
0.91328862375591
 40
0.91328862375591
 40
0.970510928958504
 40
0.970510928958504
 40
0.970510928958504
 40
1.0
 40
1.0
 40
1.0
 40
1.0
 10
1802.718575323578
 20
2140.338604414588
 30
0.0
 10
1802.718575323578
 20
2138.968391448918
 30
0.0
 10
1802.501262636661
 20
2137.579632359126
 30
0.0
 10
1802.096437230374
 20
2136.295281659706
 30
0.0
 10
1801.693337609165
 20
2135.016406192899
 30
0.0
 10
1801.097742764547
 20
2133.804940487335
 30
0.0
 10
1800.356352464728
 20
2132.725215020355
 30
0.0
 10
1799.538067071542
 20
2131.533503207433
 30
0.0
 10
1798.521299735297
 20
2130.470038653095
 30
0.0
 10
1797.364353645094
 20
2129.59798649154
 30
0.0
 10
1796.107079767924
 20
2128.650311909694
 30
0.0
 10
1794.641081956215
 20
2127.902560780007
 30
0.0
 10
1793.090188247382
 20
2127.44295496756
 30
0.0
 10
1791.671869287531
 20
2127.022637550489
 30
0.0
 10
1790.137290856875
 20
2126.833565219985
 30
0.0
 10
1788.642832510527
 20
2126.903168212815
 30
0.0
 10
1787.30718192023
 20
2126.965374883672
 30
0.0
 10
1785.967539992362
 20
2127.233694196535
 30
0.0
 10
1784.7283733944
 20
2127.678072572483
 30
0.0
 10
1783.475443730514
 20
2128.127386530858
 30
0.0
 10
1782.293424077831
 20
2128.765185045662
 30
0.0
 10
1781.248504318684
 20
2129.54133804354
 30
0.0
 10
1780.08871485829
 20
2130.402814782509
 30
0.0
 10
1779.067382509313
 20
2131.455299288188
 30
0.0
 10
1778.242468140006
 20
2132.636172306716
 30
0.0
 10
1777.34380887964
 20
2133.922611860814
 30
0.0
 10
1776.651852914929
 20
2135.406238361462
 30
0.0
 10
1776.247373489033
 20
2136.969509167487
 30
0.0
 10
1775.876140046257
 20
2138.404287715316
 30
0.0
 10
1775.740774618923
 20
2139.955331979994
 30
0.0
 10
1775.864473900206
 20
2141.448813868677
 30
0.0
 10
1775.969768210862
 20
2142.720083550375
 30
0.0
 10
1776.261639343988
 20
2143.982878486104
 30
0.0
 10
1776.708123588107
 20
2145.148755368652
 30
0.0
 10
1777.173532123185
 20
2146.364048089809
 30
0.0
 10
1777.815358472183
 20
2147.504790028659
 30
0.0
 10
1778.591236980997
 20
2148.517659734002
 30
0.0
 10
1779.493117287938
 20
2149.695018341523
 30
0.0
 10
1780.600435101598
 20
2150.730941073621
 30
0.0
 10
1781.847195991385
 20
2151.555806775592
 30
0.0
 10
1783.159252584863
 20
2152.42387257062
 30
0.0
 10
1784.671718143682
 20
2153.08167445589
 30
0.0
 10
1786.247316675115
 20
2153.444881390873
 30
0.0
 10
1787.66005663909
 20
2153.770546172864
 30
0.0
 10
1789.166896226976
 20
2153.867059127616
 30
0.0
 10
1790.61793659421
 20
2153.720746401629
 30
0.0
 10
1791.936119384859
 20
2153.587830101156
 30
0.0
 10
1793.24330492714
 20
2153.253543393626
 30
0.0
 10
1794.443795066975
 20
2152.75309597345
 30
0.0
 10
1795.68458621341
 20
2152.235848303015
 30
0.0
 10
1796.842774969146
 20
2151.530878753858
 30
0.0
 10
1797.855968331545
 20
2150.690376307934
 30
0.0
 10
1798.987783406466
 20
2149.751470296402
 30
0.0
 10
1799.969026234038
 20
2148.619792062595
 30
0.0
 10
1800.739175907805
 20
2147.361981254622
 30
0.0
 10
1801.56190045894
 20
2146.018304995774
 30
0.0
 10
1802.167413657508
 20
2144.481164209636
 30
0.0
 10
1802.475084080048
 20
2142.886275206759
 30
0.0
 10
1802.63577534214
 20
2142.053290597284
 30
0.0
 10
1802.718575323578
 20
2141.193377276839
 30
0.0
 10
1802.718575323578
 20
2140.338604414588
 30
0.0
  0
POINT
  5
71658
330
71905
100
AcDbEntity
  8
Level 25
  6
Continuous
 62
   253
370
    13
100
AcDbPoint
 10
1789.268575
 20
2153.788604
 30
0.0
  0
POINT
  5
71659
330
71905
100
AcDbEntity
  8
Level 25
  6
Continuous
 62
   253
370
    13
100
AcDbPoint
 10
1775.818575
 20
2140.338604
 30
0.0
  0
POINT
  5
7165A
330
71905
100
AcDbEntity
  8
Level 25
  6
Continuous
 62
   253
370
    13
100
AcDbPoint
 10
1789.268575
 20
2126.888604
 30
0.0
  0
POINT
  5
7165B
330
71905
100
AcDbEntity
  8
Level 25
  6
Continuous
 62
   253
370
    13
100
AcDbPoint
 10
1802.718575
 20
2140.338604
 30
0.0
  0
ENDBLK
  5
71907
330
71905
100
AcDbEntity
  8
0
 62
    98
370
     0
100
AcDbBlockEnd
  0
BLOCK
  5
71909
330
71908
100
AcDbEntity
  8
0
 62
    98
370
     0
100
AcDbBlockBegin
  2
Feature Solid_70
 70
     0
 10
0.0
 20
0.0
 30
0.0
  3
Feature Solid_70
  1

  0
INSERT
  5
7165E
330
71908
100
AcDbEntity
  8
Level 25
  6
Continuous
 62
   253
370
    13
100
AcDbBlockReference
  2
SUBTRC_19
 10
-1789.25
 20
-1691.85
 30
0.0
  0
ENDBLK
  5
7190A
330
71908
100
AcDbEntity
  8
0
 62
    98
370
     0
100
AcDbBlockEnd
  0
BLOCK
  5
7190C
330
7190B
100
AcDbEntity
  8
0
 62
    98
370
     0
100
AcDbBlockBegin
  2
SUBTRC_19
 70
     0
 10
0.0
 20
0.0
 30
0.0
  3
SUBTRC_19
  1

  0
INSERT
  5
71661
330
7190B
100
AcDbEntity
  8
Level 25
  6
Continuous
 62
   253
370
    13
100
AcDbBlockReference
  2
Feature Solid_71
 10
0.0
 20
0.0
 30
0.0
  0
ENDBLK
  5
7190D
330
7190B
100
AcDbEntity
  8
0
 62
    98
370
     0
100
AcDbBlockEnd
  0
BLOCK
  5
7190F
330
7190E
100
AcDbEntity
  8
0
 62
    98
370
     0
100
AcDbBlockBegin
  2
Feature Solid_71
 70
     0
 10
0.0
 20
0.0
 30
0.0
  3
Feature Solid_71
  1

  0
INSERT
  5
71662
330
7190E
100
AcDbEntity
  8
Level 25
  6
Continuous
 62
   253
370
    13
100
AcDbBlockReference
  2
UNITE_19
 10
0.0
 20
0.0
 30
0.0
  0
ENDBLK
  5
71910
330
7190E
100
AcDbEntity
  8
0
 62
    98
370
     0
100
AcDbBlockEnd
  0
BLOCK
  5
71912
330
71911
100
AcDbEntity
  8
0
 62
    98
370
     0
100
AcDbBlockBegin
  2
UNITE_19
 70
     0
 10
0.0
 20
0.0
 30
0.0
  3
UNITE_19
  1

  0
INSERT
  5
71663
330
71911
100
AcDbEntity
  8
Level 25
  6
Continuous
 62
   253
370
    13
100
AcDbBlockReference
  2
Feature Solid_72
 10
0.0
 20
-195.0
 30
0.0
  0
INSERT
  5
7166C
330
71911
100
AcDbEntity
  8
Level 25
  6
Continuous
 62
   253
370
    13
100
AcDbBlockReference
  2
Feature Solid_73
 10
0.0
 20
-195.0
 30
0.0
  0
INSERT
  5
71673
330
71911
100
AcDbEntity
  8
Level 25
  6
Continuous
 62
   253
370
    13
100
AcDbBlockReference
  2
Feature Solid_74
 10
0.0
 20
-195.0
 30
0.0
  0
INSERT
  5
7167A
330
71911
100
AcDbEntity
  8
Level 25
  6
Continuous
 62
   253
370
    13
100
AcDbBlockReference
  2
Feature Solid_75
 10
0.0
 20
-195.0
 30
0.0
  0
INSERT
  5
71681
330
71911
100
AcDbEntity
  8
Level 25
  6
Continuous
 62
   253
370
    13
100
AcDbBlockReference
  2
Feature Solid_76
 10
0.0
 20
-195.0
 30
0.0
  0
ENDBLK
  5
71913
330
71911
100
AcDbEntity
  8
0
 62
    98
370
     0
100
AcDbBlockEnd
  0
BLOCK
  5
71915
330
71914
100
AcDbEntity
  8
0
 62
    98
370
     0
100
AcDbBlockBegin
  2
Feature Solid_72
 70
     0
 10
0.0
 20
0.0
 30
0.0
  3
Feature Solid_72
  1

  0
INSERT
  5
71664
330
71914
100
AcDbEntity
  8
Level 25
  6
Continuous
 62
   253
370
    13
100
AcDbBlockReference
  2
DDPROJ_9
 10
0.0
 20
0.0
 30
0.0
  0
ENDBLK
  5
71916
330
71914
100
AcDbEntity
  8
0
 62
    98
370
     0
100
AcDbBlockEnd
  0
BLOCK
  5
71918
330
71917
100
AcDbEntity
  8
0
 62
    98
370
     0
100
AcDbBlockBegin
  2
DDPROJ_9
 70
     0
 10
0.0
 20
0.0
 30
0.0
  3
DDPROJ_9
  1

  0
SPLINE
  5
71665
330
71917
100
AcDbEntity
  8
Level 25
  6
Continuous
 62
   253
370
    13
100
AcDbSpline
210
0.0
220
0.0
230
1.0
 70
     9
 71
     3
 72
    65
 73
    61
 74
     0
 42
0.000000001
 43
0.0000000001
 40
0.0
 40
0.0
 40
0.0
 40
0.0
 40
0.0478874748942779
 40
0.0478874748942779
 40
0.0478874748942779
 40
0.0954231915822443
 40
0.0954231915822443
 40
0.0954231915822443
 40
0.1479430513843607
 40
0.1479430513843607
 40
0.1479430513843607
 40
0.2052621310094716
 40
0.2052621310094716
 40
0.2052621310094716
 40
0.257656337443203
 40
0.257656337443203
 40
0.257656337443203
 40
0.3042938191004633
 40
0.3042938191004633
 40
0.3042938191004633
 40
0.3513745452954863
 40
0.3513745452954863
 40
0.3513745452954863
 40
0.4036870666662925
 40
0.4036870666662925
 40
0.4036870666662925
 40
0.46091441595463
 40
0.46091441595463
 40
0.46091441595463
 40
0.5134920645150873
 40
0.5134920645150873
 40
0.5134920645150873
 40
0.5579494996308176
 40
0.5579494996308176
 40
0.5579494996308176
 40
0.6042220120771085
 40
0.6042220120771085
 40
0.6042220120771085
 40
0.6581550545996135
 40
0.6581550545996135
 40
0.6581550545996135
 40
0.7151378738746791
 40
0.7151378738746791
 40
0.7151378738746791
 40
0.7661466338033255
 40
0.7661466338033255
 40
0.7661466338033255
 40
0.8123078588329432
 40
0.8123078588329432
 40
0.8123078588329432
 40
0.8599668332764828
 40
0.8599668332764828
 40
0.8599668332764828
 40
0.9132886237559125
 40
0.9132886237559125
 40
0.9132886237559125
 40
0.9705109289585053
 40
0.9705109289585053
 40
0.9705109289585053
 40
1.0
 40
1.0
 40
1.0
 40
1.0
 10
1775.818575323578
 20
1633.338604414588
 30
0.0
 10
1775.818575323578
 20
1631.968391448918
 30
0.0
 10
1776.035888010494
 20
1630.579632359127
 30
0.0
 10
1776.440713416781
 20
1629.295281659706
 30
0.0
 10
1776.843813037995
 20
1628.016406192899
 30
0.0
 10
1777.439407882612
 20
1626.804940487335
 30
0.0
 10
1778.180798182428
 20
1625.725215020355
 30
0.0
 10
1778.999083575613
 20
1624.533503207433
 30
0.0
 10
1780.015850911863
 20
1623.470038653095
 30
0.0
 10
1781.172797002066
 20
1622.597986491539
 30
0.0
 10
1782.430070879236
 20
1621.650311909693
 30
0.0
 10
1783.89606869094
 20
1620.902560780007
 30
0.0
 10
1785.446962399777
 20
1620.44295496756
 30
0.0
 10
1786.865281359624
 20
1620.022637550489
 30
0.0
 10
1788.399859790284
 20
1619.833565219984
 30
0.0
 10
1789.894318136632
 20
1619.903168212815
 30
0.0
 10
1791.229968726925
 20
1619.965374883672
 30
0.0
 10
1792.569610654794
 20
1620.233694196535
 30
0.0
 10
1793.808777252756
 20
1620.678072572483
 30
0.0
 10
1795.061706916641
 20
1621.127386530857
 30
0.0
 10
1796.243726569325
 20
1621.765185045662
 30
0.0
 10
1797.288646328471
 20
1622.54133804354
 30
0.0
 10
1798.44843578887
 20
1623.402814782509
 30
0.0
 10
1799.469768137846
 20
1624.455299288188
 30
0.0
 10
1800.29468250715
 20
1625.636172306716
 30
0.0
 10
1801.19334176752
 20
1626.922611860814
 30
0.0
 10
1801.885297732226
 20
1628.406238361462
 30
0.0
 10
1802.289777158122
 20
1629.969509167487
 30
0.0
 10
1802.661010600902
 20
1631.404287715317
 30
0.0
 10
1802.796376028236
 20
1632.955331979995
 30
0.0
 10
1802.67267674695
 20
1634.448813868677
 30
0.0
 10
1802.567382436298
 20
1635.720083550375
 30
0.0
 10
1802.275511303171
 20
1636.982878486103
 30
0.0
 10
1801.829027059048
 20
1638.148755368652
 30
0.0
 10
1801.36361852397
 20
1639.364048089809
 30
0.0
 10
1800.721792174976
 20
1640.504790028658
 30
0.0
 10
1799.945913666159
 20
1641.517659734002
 30
0.0
 10
1799.044033359222
 20
1642.695018341523
 30
0.0
 10
1797.936715545557
 20
1643.730941073621
 30
0.0
 10
1796.689954655774
 20
1644.555806775591
 30
0.0
 10
1795.377898062292
 20
1645.42387257062
 30
0.0
 10
1793.865432503473
 20
1646.08167445589
 30
0.0
 10
1792.289833972041
 20
1646.444881390873
 30
0.0
 10
1790.877094008066
 20
1646.770546172864
 30
0.0
 10
1789.37025442018
 20
1646.867059127616
 30
0.0
 10
1787.919214052945
 20
1646.720746401628
 30
0.0
 10
1786.601031262301
 20
1646.587830101156
 30
0.0
 10
1785.293845720016
 20
1646.253543393626
 30
0.0
 10
1784.093355580181
 20
1645.753095973449
 30
0.0
 10
1782.852564433746
 20
1645.235848303015
 30
0.0
 10
1781.69437567801
 20
1644.530878753858
 30
0.0
 10
1780.68118231561
 20
1643.690376307934
 30
0.0
 10
1779.549367240693
 20
1642.751470296402
 30
0.0
 10
1778.568124413117
 20
1641.619792062594
 30
0.0
 10
1777.79797473935
 20
1640.361981254623
 30
0.0
 10
1776.975250188217
 20
1639.018304995774
 30
0.0
 10
1776.369736989647
 20
1637.481164209636
 30
0.0
 10
1776.062066567108
 20
1635.886275206759
 30
0.0
 10
1775.901375305019
 20
1635.053290597284
 30
0.0
 10
1775.818575323578
 20
1634.193377276839
 30
0.0
 10
1775.818575323578
 20
1633.338604414588
 30
0.0
  0
POINT
  5
71668
330
71917
100
AcDbEntity
  8
Level 25
  6
Continuous
 62
   253
370
    13
100
AcDbPoint
 10
1789.268575
 20
1619.888604
 30
0.0
  0
POINT
  5
71669
330
71917
100
AcDbEntity
  8
Level 25
  6
Continuous
 62
   253
370
    13
100
AcDbPoint
 10
1802.718575
 20
1633.338604
 30
0.0
  0
POINT
  5
7166A
330
71917
100
AcDbEntity
  8
Level 25
  6
Continuous
 62
   253
370
    13
100
AcDbPoint
 10
1789.268575
 20
1646.788604
 30
0.0
  0
POINT
  5
7166B
330
71917
100
AcDbEntity
  8
Level 25
  6
Continuous
 62
   253
370
    13
100
AcDbPoint
 10
1775.818575
 20
1633.338604
 30
0.0
  0
ENDBLK
  5
71919
330
71917
100
AcDbEntity
  8
0
 62
    98
370
     0
100
AcDbBlockEnd
  0
BLOCK
  5
7191B
330
7191A
100
AcDbEntity
  8
0
 62
    98
370
     0
100
AcDbBlockBegin
  2
Feature Solid_73
 70
     0
 10
0.0
 20
0.0
 30
0.0
  3
Feature Solid_73
  1

  0
INSERT
  5
7166D
330
7191A
100
AcDbEntity
  8
Level 25
  6
Continuous
 62
   253
370
    13
100
AcDbBlockReference
  2
TORUS_6
 10
0.0
 20
0.0
 30
0.0
  0
ENDBLK
  5
7191C
330
7191A
100
AcDbEntity
  8
0
 62
    98
370
     0
100
AcDbBlockEnd
  0
BLOCK
  5
7191E
330
7191D
100
AcDbEntity
  8
0
 62
    98
370
     0
100
AcDbBlockBegin
  2
TORUS_6
 70
     0
 10
0.0
 20
0.0
 30
0.0
  3
TORUS_6
  1

  0
ARC
  5
7166E
330
7191D
100
AcDbEntity
  8
Level 25
  6
Continuous
 62
   253
370
    13
100
AcDbCircle
 10
-1789.268575
 20
1633.338604
 30
0.0
 40
13.44999999999999
210
0.0
220
0.0
230
-1.0
100
AcDbArc
 50
0.0
 51
359.999994
  0
LINE
  5
7166F
330
7191D
100
AcDbEntity
  8
Level 25
  6
Continuous
 62
   253
370
    13
100
AcDbLine
 10
1775.818575
 20
1703.338604
 30
0.0
 11
1775.818575
 21
1633.338604
 31
0.0
  0
LINE
  5
71670
330
7191D
100
AcDbEntity
  8
Level 25
  6
Continuous
 62
   253
370
    13
100
AcDbLine
 10
1789.268575
 20
1703.338604
 30
0.0
 11
1789.268575
 21
1619.888604
 31
0.0
  0
LINE
  5
71671
330
7191D
100
AcDbEntity
  8
Level 25
  6
Continuous
 62
   253
370
    13
100
AcDbLine
 10
1802.718575
 20
1703.338604
 30
0.0
 11
1802.718575
 21
1633.338604
 31
0.0
  0
LINE
  5
71672
330
7191D
100
AcDbEntity
  8
Level 25
  6
Continuous
 62
   253
370
    13
100
AcDbLine
 10
1789.268575
 20
1703.338604
 30
0.0
 11
1789.268575
 21
1646.788604
 31
0.0
  0
ENDBLK
  5
7191F
330
7191D
100
AcDbEntity
  8
0
 62
    98
370
     0
100
AcDbBlockEnd
  0
BLOCK
  5
71921
330
71920
100
AcDbEntity
  8
0
 62
    98
370
     0
100
AcDbBlockBegin
  2
Feature Solid_74
 70
     0
 10
0.0
 20
0.0
 30
0.0
  3
Feature Solid_74
  1

  0
INSERT
  5
71674
330
71920
100
AcDbEntity
  8
Level 25
  6
Continuous
 62
   253
370
    13
100
AcDbBlockReference
  2
DDPROJ_10
 10
0.0
 20
0.0
 30
0.0
  0
ENDBLK
  5
71922
330
71920
100
AcDbEntity
  8
0
 62
    98
370
     0
100
AcDbBlockEnd
  0
BLOCK
  5
71924
330
71923
100
AcDbEntity
  8
0
 62
    98
370
     0
100
AcDbBlockBegin
  2
DDPROJ_10
 70
     0
 10
0.0
 20
0.0
 30
0.0
  3
DDPROJ_10
  1

  0
LINE
  5
71675
330
71923
100
AcDbEntity
  8
Level 25
  6
Continuous
 62
   253
370
    13
100
AcDbLine
 10
1802.718575
 20
1703.338604
 30
0.0
 11
1775.818575
 21
1703.338604
 31
0.0
  0
LINE
  5
71676
330
71923
100
AcDbEntity
  8
Level 25
  6
Continuous
 62
   253
370
    13
100
AcDbLine
 10
1789.268575
 20
1703.338604
 30
0.0
 11
1789.268575
 21
2070.338604
 31
0.0
  0
LINE
  5
71677
330
71923
100
AcDbEntity
  8
Level 25
  6
Continuous
 62
   253
370
    13
100
AcDbLine
 10
1802.718575
 20
1703.338604
 30
0.0
 11
1802.718575
 21
2070.338604
 31
0.0
  0
LINE
  5
71678
330
71923
100
AcDbEntity
  8
Level 25
  6
Continuous
 62
   253
370
    13
100
AcDbLine
 10
1789.268575
 20
1703.338604
 30
0.0
 11
1789.268575
 21
2070.338604
 31
0.0
  0
LINE
  5
71679
330
71923
100
AcDbEntity
  8
Level 25
  6
Continuous
 62
   253
370
    13
100
AcDbLine
 10
1775.818575
 20
1703.338604
 30
0.0
 11
1775.818575
 21
2070.338604
 31
0.0
  0
ENDBLK
  5
71925
330
71923
100
AcDbEntity
  8
0
 62
    98
370
     0
100
AcDbBlockEnd
  0
BLOCK
  5
71927
330
71926
100
AcDbEntity
  8
0
 62
    98
370
     0
100
AcDbBlockBegin
  2
Feature Solid_75
 70
     0
 10
0.0
 20
0.0
 30
0.0
  3
Feature Solid_75
  1

  0
INSERT
  5
7167B
330
71926
100
AcDbEntity
  8
Level 25
  6
Continuous
 62
   253
370
    13
100
AcDbBlockReference
  2
TORUS_7
 10
0.0
 20
0.0
 30
0.0
  0
ENDBLK
  5
71928
330
71926
100
AcDbEntity
  8
0
 62
    98
370
     0
100
AcDbBlockEnd
  0
BLOCK
  5
7192A
330
71929
100
AcDbEntity
  8
0
 62
    98
370
     0
100
AcDbBlockBegin
  2
TORUS_7
 70
     0
 10
0.0
 20
0.0
 30
0.0
  3
TORUS_7
  1

  0
LINE
  5
7167C
330
71929
100
AcDbEntity
  8
Level 25
  6
Continuous
 62
   253
370
    13
100
AcDbLine
 10
1802.718575
 20
2070.338604
 30
0.0
 11
1775.818575
 21
2070.338604
 31
0.0
  0
LINE
  5
7167D
330
71929
100
AcDbEntity
  8
Level 25
  6
Continuous
 62
   253
370
    13
100
AcDbLine
 10
1775.818575
 20
2140.338604
 30
0.0
 11
1775.818575
 21
2070.338604
 31
0.0
  0
LINE
  5
7167E
330
71929
100
AcDbEntity
  8
Level 25
  6
Continuous
 62
   253
370
    13
100
AcDbLine
 10
1789.268575
 20
2153.788604
 30
0.0
 11
1789.268575
 21
2070.338604
 31
0.0
  0
LINE
  5
7167F
330
71929
100
AcDbEntity
  8
Level 25
  6
Continuous
 62
   253
370
    13
100
AcDbLine
 10
1802.718575
 20
2140.338604
 30
0.0
 11
1802.718575
 21
2070.338604
 31
0.0
  0
LINE
  5
71680
330
71929
100
AcDbEntity
  8
Level 25
  6
Continuous
 62
   253
370
    13
100
AcDbLine
 10
1789.268575
 20
2126.888604
 30
0.0
 11
1789.268575
 21
2070.338604
 31
0.0
  0
ENDBLK
  5
7192B
330
71929
100
AcDbEntity
  8
0
 62
    98
370
     0
100
AcDbBlockEnd
  0
BLOCK
  5
7192D
330
7192C
100
AcDbEntity
  8
0
 62
    98
370
     0
100
AcDbBlockBegin
  2
Feature Solid_76
 70
     0
 10
0.0
 20
0.0
 30
0.0
  3
Feature Solid_76
  1

  0
INSERT
  5
71682
330
7192C
100
AcDbEntity
  8
Level 25
  6
Continuous
 62
   253
370
    13
100
AcDbBlockReference
  2
DDPROJ_11
 10
0.0
 20
0.0
 30
0.0
  0
ENDBLK
  5
7192E
330
7192C
100
AcDbEntity
  8
0
 62
    98
370
     0
100
AcDbBlockEnd
  0
BLOCK
  5
71930
330
7192F
100
AcDbEntity
  8
0
 62
    98
370
     0
100
AcDbBlockBegin
  2
DDPROJ_11
 70
     0
 10
0.0
 20
0.0
 30
0.0
  3
DDPROJ_11
  1

  0
ARC
  5
71683
330
7192F
100
AcDbEntity
  8
Level 25
  6
Continuous
 62
   253
370
    13
100
AcDbCircle
 10
1789.268575
 20
2140.338604
 30
0.0
 40
13.45
100
AcDbArc
 50
0.0
 51
359.999994
  0
SPLINE
  5
71684
330
7192F
100
AcDbEntity
  8
Level 25
  6
Continuous
 62
   253
370
    13
100
AcDbSpline
210
0.0
220
0.0
230
1.0
 70
     9
 71
     3
 72
    65
 73
    61
 74
     0
 42
0.000000001
 43
0.0000000001
 40
0.0
 40
0.0
 40
0.0
 40
0.0
 40
0.0478874748942771
 40
0.0478874748942771
 40
0.0478874748942771
 40
0.0954231915822426
 40
0.0954231915822426
 40
0.0954231915822426
 40
0.147943051384359
 40
0.147943051384359
 40
0.147943051384359
 40
0.2052621310094699
 40
0.2052621310094699
 40
0.2052621310094699
 40
0.2576563374432026
 40
0.2576563374432026
 40
0.2576563374432026
 40
0.3042938191004628
 40
0.3042938191004628
 40
0.3042938191004628
 40
0.3513745452954855
 40
0.3513745452954855
 40
0.3513745452954855
 40
0.4036870666662907
 40
0.4036870666662907
 40
0.4036870666662907
 40
0.4609144159546271
 40
0.4609144159546271
 40
0.4609144159546271
 40
0.5134920645150848
 40
0.5134920645150848
 40
0.5134920645150848
 40
0.5579494996308162
 40
0.5579494996308162
 40
0.5579494996308162
 40
0.6042220120771074
 40
0.6042220120771074
 40
0.6042220120771074
 40
0.6581550545996125
 40
0.6581550545996125
 40
0.6581550545996125
 40
0.715137873874678
 40
0.715137873874678
 40
0.715137873874678
 40
0.7661466338033233
 40
0.7661466338033233
 40
0.7661466338033233
 40
0.8123078588329411
 40
0.8123078588329411
 40
0.8123078588329411
 40
0.85996683327648
 40
0.85996683327648
 40
0.85996683327648
 40
0.9132886237559104
 40
0.9132886237559104
 40
0.9132886237559104
 40
0.970510928958504
 40
0.970510928958504
 40
0.970510928958504
 40
1.0
 40
1.0
 40
1.0
 40
1.0
 10
1802.718575323578
 20
2140.338604414588
 30
0.0
 10
1802.718575323578
 20
2141.708817380258
 30
0.0
 10
1802.501262636661
 20
2143.09757647005
 30
0.0
 10
1802.096437230374
 20
2144.381927169471
 30
0.0
 10
1801.693337609165
 20
2145.660802636278
 30
0.0
 10
1801.097742764547
 20
2146.872268341841
 30
0.0
 10
1800.356352464728
 20
2147.951993808821
 30
0.0
 10
1799.538067071542
 20
2149.143705621744
 30
0.0
 10
1798.521299735297
 20
2150.207170176082
 30
0.0
 10
1797.364353645094
 20
2151.079222337637
 30
0.0
 10
1796.107079767924
 20
2152.026896919483
 30
0.0
 10
1794.641081956215
 20
2152.77464804917
 30
0.0
 10
1793.090188247382
 20
2153.234253861616
 30
0.0
 10
1791.671869287531
 20
2153.654571278687
 30
0.0
 10
1790.137290856875
 20
2153.843643609192
 30
0.0
 10
1788.642832510527
 20
2153.774040616362
 30
0.0
 10
1787.30718192023
 20
2153.711833945505
 30
0.0
 10
1785.967539992362
 20
2153.443514632642
 30
0.0
 10
1784.7283733944
 20
2152.999136256694
 30
0.0
 10
1783.475443730514
 20
2152.54982229832
 30
0.0
 10
1782.293424077831
 20
2151.912023783514
 30
0.0
 10
1781.248504318684
 20
2151.135870785636
 30
0.0
 10
1780.08871485829
 20
2150.274394046668
 30
0.0
 10
1779.067382509313
 20
2149.221909540989
 30
0.0
 10
1778.242468140006
 20
2148.041036522461
 30
0.0
 10
1777.34380887964
 20
2146.754596968362
 30
0.0
 10
1776.651852914929
 20
2145.270970467714
 30
0.0
 10
1776.247373489033
 20
2143.70769966169
 30
0.0
 10
1775.876140046257
 20
2142.27292111386
 30
0.0
 10
1775.740774618923
 20
2140.721876849182
 30
0.0
 10
1775.864473900206
 20
2139.228394960499
 30
0.0
 10
1775.969768210862
 20
2137.957125278802
 30
0.0
 10
1776.261639343988
 20
2136.694330343074
 30
0.0
 10
1776.708123588107
 20
2135.528453460525
 30
0.0
 10
1777.173532123185
 20
2134.313160739368
 30
0.0
 10
1777.815358472183
 20
2133.172418800518
 30
0.0
 10
1778.591236980997
 20
2132.159549095175
 30
0.0
 10
1779.493117287938
 20
2130.982190487653
 30
0.0
 10
1780.600435101598
 20
2129.946267755555
 30
0.0
 10
1781.847195991385
 20
2129.121402053585
 30
0.0
 10
1783.159252584863
 20
2128.253336258556
 30
0.0
 10
1784.671718143682
 20
2127.595534373286
 30
0.0
 10
1786.247316675115
 20
2127.232327438304
 30
0.0
 10
1787.66005663909
 20
2126.906662656313
 30
0.0
 10
1789.166896226976
 20
2126.81014970156
 30
0.0
 10
1790.61793659421
 20
2126.956462427548
 30
0.0
 10
1791.936119384859
 20
2127.08937872802
 30
0.0
 10
1793.24330492714
 20
2127.423665435552
 30
0.0
 10
1794.443795066975
 20
2127.924112855727
 30
0.0
 10
1795.68458621341
 20
2128.441360526161
 30
0.0
 10
1796.842774969146
 20
2129.146330075319
 30
0.0
 10
1797.855968331545
 20
2129.986832521242
 30
0.0
 10
1798.987783406466
 20
2130.925738532774
 30
0.0
 10
1799.969026234038
 20
2132.057416766582
 30
0.0
 10
1800.739175907805
 20
2133.315227574553
 30
0.0
 10
1801.56190045894
 20
2134.658903833402
 30
0.0
 10
1802.167413657508
 20
2136.196044619541
 30
0.0
 10
1802.475084080048
 20
2137.790933622418
 30
0.0
 10
1802.63577534214
 20
2138.623918231893
 30
0.0
 10
1802.718575323578
 20
2139.483831552338
 30
0.0
 10
1802.718575323578
 20
2140.338604414588
 30
0.0
  0
POINT
  5
71687
330
7192F
100
AcDbEntity
  8
Level 25
  6
Continuous
 62
   253
370
    13
100
AcDbPoint
 10
1789.268575
 20
2126.888604
 30
0.0
  0
POINT
  5
71688
330
7192F
100
AcDbEntity
  8
Level 25
  6
Continuous
 62
   253
370
    13
100
AcDbPoint
 10
1775.818575
 20
2140.338604
 30
0.0
  0
POINT
  5
71689
330
7192F
100
AcDbEntity
  8
Level 25
  6
Continuous
 62
   253
370
    13
100
AcDbPoint
 10
1789.268575
 20
2153.788604
 30
0.0
  0
POINT
  5
7168A
330
7192F
100
AcDbEntity
  8
Level 25
  6
Continuous
 62
   253
370
    13
100
AcDbPoint
 10
1802.718575
 20
2140.338604
 30
0.0
  0
ENDBLK
  5
71931
330
7192F
100
AcDbEntity
  8
0
 62
    98
370
     0
100
AcDbBlockEnd
  0
ENDSEC
  0
SECTION
  2
ENTITIES
  0
INSERT
  5
71448
330
716B1
100
AcDbEntity
  8
Level 26
 62
     7
370
    13
100
AcDbBlockReference
  2
A3010S
 10
2125.312423
 20
-795.589126
 30
0.0
  0
LWPOLYLINE
  5
71693
330
716B1
100
AcDbEntity
  8
Level 15
  6
DGN Style 2
 62
     7
370
    13
100
AcDbPolyline
 90
        5
 70
   129
 43
0.0
 10
3685.551513
 20
268.321946
 42
0.08707
 10
3685.551513
 20
-559.500198
 42
-1.162699
 10
565.073333
 20
-559.500198
 42
0.08707
 10
565.073333
 20
268.321946
 42
-1.162699
 10
3685.551513
 20
268.321946
  0
ENDSEC
  0
SECTION
  2
OBJECTS
  0
DICTIONARY
  5
716B8
330
0
100
AcDbDictionary
281
     1
  3
ACAD_COLOR
350
716F6
  3
ACAD_GROUP
350
716E3
  3
ACAD_LAYOUT
350
716C5
  3
ACAD_MATERIAL
350
716BA
  3
ACAD_MLEADERSTYLE
350
716F9
  3
ACAD_MLINESTYLE
350
716E4
  3
ACAD_PLOTSETTINGS
350
716E5
  3
ACAD_PLOTSTYLENAME
350
716B7
  3
ACAD_SCALELIST
350
716F7
  3
ACAD_TABLESTYLE
350
716F8
  3
ACAD_VISUALSTYLE
350
716DD
  3
ACDB_RECOMPOSE_DATA
350
7193E
  3
AcDbVariableDictionary
350
71934
  0
DICTIONARY
  5
716D0
330
716CF
100
AcDbDictionary
280
     1
281
     1
  3
ACAD_LAYERFILTERS
360
71723
  3
ACAD_LAYERSTATES
360
716D1
  3
ACLYDICTIONARY
360
71724
  0
DICTIONARY
  5
716B4
330
716B3
100
AcDbDictionary
280
     1
281
     1
  3
ADSK_XREC_LAYER_RECONCILED
360
716B5
  0
DICTIONARY
  5
716F6
102
{ACAD_REACTORS
330
716B8
102
}
330
716B8
100
AcDbDictionary
281
     1
  0
DICTIONARY
  5
716E3
102
{ACAD_REACTORS
330
716B8
102
}
330
716B8
100
AcDbDictionary
281
     1
  0
DICTIONARY
  5
716C5
102
{ACAD_REACTORS
330
716B8
102
}
330
716B8
100
AcDbDictionary
281
     1
  3
Layout1
350
716CB
  3
Model
350
716C4
  0
DICTIONARY
  5
716BA
102
{ACAD_REACTORS
330
716B8
102
}
330
716B8
100
AcDbDictionary
281
     1
  3
ByBlock
350
716EE
  3
ByLayer
350
716E6
  3
Global
350
716B9
  0
DICTIONARY
  5
716F9
102
{ACAD_REACTORS
330
716B8
102
}
330
716B8
100
AcDbDictionary
281
     1
  0
DICTIONARY
  5
716E4
102
{ACAD_REACTORS
330
716B8
102
}
330
716B8
100
AcDbDictionary
281
     1
  3
Standard
350
716FA
  0
DICTIONARY
  5
716E5
102
{ACAD_REACTORS
330
716B8
102
}
330
716B8
100
AcDbDictionary
281
     1
  0
ACDBDICTIONARYWDFLT
  5
716B7
102
{ACAD_REACTORS
330
716B8
102
}
330
716B8
100
AcDbDictionary
281
     1
  3
Normal
350
716B6
100
AcDbDictionaryWithDefault
340
716B6
  0
DICTIONARY
  5
716F7
102
{ACAD_REACTORS
330
716B8
102
}
330
716B8
100
AcDbDictionary
281
     1
  3
A0
350
716FF
  3
A1
350
71700
  3
A2
350
71701
  3
A3
350
71702
  3
A4
350
71703
  3
A5
350
71704
  3
A6
350
71705
  3
A7
350
71706
  3
A8
350
71707
  3
A9
350
71708
  3
B0
350
71709
  3
B1
350
7170A
  3
B2
350
7170B
  3
B3
350
7170C
  3
B4
350
7170D
  3
B5
350
7170E
  3
B6
350
7170F
  3
B7
350
71710
  3
B8
350
71711
  3
B9
350
71712
  3
C0
350
71713
  3
C1
350
71714
  3
C2
350
71715
  3
C3
350
71716
  3
C4
350
71717
  3
C5
350
71718
  3
C6
350
71719
  3
C7
350
7171A
  3
C8
350
7171B
  3
C9
350
7171C
  3
D0
350
7171D
  3
D1
350
7171E
  3
D2
350
7171F
  0
DICTIONARY
  5
716F8
102
{ACAD_REACTORS
330
716B8
102
}
330
716B8
100
AcDbDictionary
281
     1
  3
Standard
350
716FB
  0
DICTIONARY
  5
716DD
102
{ACAD_REACTORS
330
716B8
102
}
330
716B8
100
AcDbDictionary
281
     1
  3
2dWireframe
350
716DC
  3
Realistic
350
716FD
  3
Wireframe
350
716FE
  0
XRECORD
  5
7193E
102
{ACAD_REACTORS
330
716B8
102
}
330
716B8
100
AcDbXrecord
280
     1
 90
        1
330
716FB
  0
DICTIONARY
  5
71934
102
{ACAD_REACTORS
330
716B8
102
}
330
716B8
100
AcDbDictionary
281
     1
  3
CANNOSCALE
350
7193A
  3
CMLEADERSTYLE
350
71936
  3
CTABLESTYLE
350
71935
  3
CVIEWDETAILSTYLE
350
71937
  3
CVIEWSECTIONSTYLE
350
71938
  3
LAYEREVAL
350
7193B
  3
LAYERNOTIFY
350
7193C
  3
MSLTSCALE
350
71939
  0
DICTIONARY
  5
71723
102
{ACAD_REACTORS
330
716D0
102
}
330
716D0
100
AcDbDictionary
281
     1
  0
DICTIONARY
  5
716D1
102
{ACAD_REACTORS
330
716D0
102
}
330
716D0
100
AcDbDictionary
281
     1
  0
DICTIONARY
  5
71724
102
{ACAD_REACTORS
330
716D0
102
}
330
716D0
100
AcDbDictionary
281
     1
  0
XRECORD
  5
716B5
102
{ACAD_REACTORS
330
716B4
102
}
330
716B4
100
AcDbXrecord
280
     1
290
     1
  0
LAYOUT
  5
716CB
102
{ACAD_XDICTIONARY
360
716CC
102
}
102
{ACAD_REACTORS
330
716C5
102
}
330
716C5
100
AcDbPlotSettings
  1

  2
none_device
  4
Letter_(8.50_x_11.00_Inches)
  6

 40
6.35
 41
6.35
 42
6.350006
 43
6.350006
 44
215.899994
 45
279.399994
 46
0.0
 47
0.0
 48
0.0
 49
0.0
140
0.0
141
0.0
142
1.0
143
1.0
 70
   688
 72
     0
 73
     1
 74
     5
  7

 75
    16
147
1.0
 76
     0
 77
     2
 78
   300
148
0.0
149
0.0
100
AcDbLayout
  1
Layout1
 70
     1
 71
     1
 10
-0.25
 20
-0.25
 11
10.75
 21
8.25
 12
0.0
 22
0.0
 32
0.0
 14
1.05
 24
0.8
 34
0.0
 15
9.45
 25
7.2
 35
0.0
146
0.0
 13
0.0
 23
0.0
 33
0.0
 16
1.0
 26
0.0
 36
0.0
 17
0.0
 27
1.0
 37
0.0
 76
     0
330
716C8
1001
ACAD_PSEXT
1000
None
1000
None
1000
Not applicable
1000
The layout will not be plotted unless a new plotter configuration name is selected.
1070
     0
  0
LAYOUT
  5
716C4
102
{ACAD_XDICTIONARY
360
716C6
102
}
102
{ACAD_REACTORS
330
716C5
102
}
330
716C5
100
AcDbPlotSettings
  1

  2
none_device
  4
ANSI_A_(8.50_x_11.00_Inches)
  6

 40
6.35
 41
19.049999
 42
6.350006
 43
19.049988
 44
215.899994
 45
279.399994
 46
0.0
 47
0.0
 48
0.0
 49
0.0
140
0.0
141
0.0
142
1.0
143
2.584895
 70
 11952
 72
     0
 73
     1
 74
     0
  7

 75
     0
147
0.386863
 76
     0
 77
     2
 78
   300
148
0.0
149
0.0
100
AcDbLayout
  1
Model
 70
     1
 71
     0
 10
0.0
 20
0.0
 11
12.0
 21
9.0
 12
0.0
 22
0.0
 32
0.0
 14
0.0
 24
0.0
 34
0.0
 15
0.0
 25
0.0
 35
0.0
146
0.0
 13
0.0
 23
0.0
 33
0.0
 16
1.0
 26
0.0
 36
0.0
 17
0.0
 27
1.0
 37
0.0
 76
     0
330
716B1
331
716DB
  0
MATERIAL
  5
716EE
102
{ACAD_XDICTIONARY
360
716EF
102
}
102
{ACAD_REACTORS
330
716BA
102
}
330
716BA
100
AcDbMaterial
  1
ByBlock
 72
     0
 43
0.020833
 43
0.0
 43
0.0
 43
0.0
 43
0.0
 43
0.020833
 43
0.0
 43
0.0
 43
0.0
 43
0.0
 43
1.0
 43
0.0
 43
0.0
 43
0.0
 43
0.0
 43
1.0
 77
     0
 47
0.020833
 47
0.0
 47
0.0
 47
0.0
 47
0.0
 47
0.020833
 47
0.0
 47
0.0
 47
0.0
 47
0.0
 47
1.0
 47
0.0
 47
0.0
 47
0.0
 47
0.0
 47
1.0
171
     0
 49
0.020833
 49
0.0
 49
0.0
 49
0.0
 49
0.0
 49
0.020833
 49
0.0
 49
0.0
 49
0.0
 49
0.0
 49
1.0
 49
0.0
 49
0.0
 49
0.0
 49
0.0
 49
1.0
175
     0
142
0.020833
142
0.0
142
0.0
142
0.0
142
0.0
142
0.020833
142
0.0
142
0.0
142
0.0
142
0.0
142
1.0
142
0.0
142
0.0
142
0.0
142
0.0
142
1.0
179
     0
144
0.020833
144
0.0
144
0.0
144
0.0
144
0.0
144
0.020833
144
0.0
144
0.0
144
0.0
144
0.0
144
1.0
144
0.0
144
0.0
144
0.0
144
0.0
144
1.0
147
0.020833
147
0.0
147
0.0
147
0.0
147
0.0
147
0.020833
147
0.0
147
0.0
147
0.0
147
0.0
147
1.0
147
0.0
147
0.0
147
0.0
147
0.0
147
1.0
  0
MATERIAL
  5
716E6
102
{ACAD_XDICTIONARY
360
716E7
102
}
102
{ACAD_REACTORS
330
716BA
102
}
330
716BA
100
AcDbMaterial
  1
ByLayer
 72
     0
 43
0.020833
 43
0.0
 43
0.0
 43
0.0
 43
0.0
 43
0.020833
 43
0.0
 43
0.0
 43
0.0
 43
0.0
 43
1.0
 43
0.0
 43
0.0
 43
0.0
 43
0.0
 43
1.0
 77
     0
 47
0.020833
 47
0.0
 47
0.0
 47
0.0
 47
0.0
 47
0.020833
 47
0.0
 47
0.0
 47
0.0
 47
0.0
 47
1.0
 47
0.0
 47
0.0
 47
0.0
 47
0.0
 47
1.0
171
     0
 49
0.020833
 49
0.0
 49
0.0
 49
0.0
 49
0.0
 49
0.020833
 49
0.0
 49
0.0
 49
0.0
 49
0.0
 49
1.0
 49
0.0
 49
0.0
 49
0.0
 49
0.0
 49
1.0
175
     0
142
0.020833
142
0.0
142
0.0
142
0.0
142
0.0
142
0.020833
142
0.0
142
0.0
142
0.0
142
0.0
142
1.0
142
0.0
142
0.0
142
0.0
142
0.0
142
1.0
179
     0
144
0.020833
144
0.0
144
0.0
144
0.0
144
0.0
144
0.020833
144
0.0
144
0.0
144
0.0
144
0.0
144
1.0
144
0.0
144
0.0
144
0.0
144
0.0
144
1.0
147
0.020833
147
0.0
147
0.0
147
0.0
147
0.0
147
0.020833
147
0.0
147
0.0
147
0.0
147
0.0
147
1.0
147
0.0
147
0.0
147
0.0
147
0.0
147
1.0
  0
MATERIAL
  5
716B9
102
{ACAD_XDICTIONARY
360
716BB
102
}
102
{ACAD_REACTORS
330
716BA
102
}
330
716BA
100
AcDbMaterial
  1
Global
 72
     0
 43
0.020833
 43
0.0
 43
0.0
 43
0.0
 43
0.0
 43
0.020833
 43
0.0
 43
0.0
 43
0.0
 43
0.0
 43
1.0
 43
0.0
 43
0.0
 43
0.0
 43
0.0
 43
1.0
 77
     0
 47
0.020833
 47
0.0
 47
0.0
 47
0.0
 47
0.0
 47
0.020833
 47
0.0
 47
0.0
 47
0.0
 47
0.0
 47
1.0
 47
0.0
 47
0.0
 47
0.0
 47
0.0
 47
1.0
171
     0
 49
0.020833
 49
0.0
 49
0.0
 49
0.0
 49
0.0
 49
0.020833
 49
0.0
 49
0.0
 49
0.0
 49
0.0
 49
1.0
 49
0.0
 49
0.0
 49
0.0
 49
0.0
 49
1.0
175
     0
142
0.020833
142
0.0
142
0.0
142
0.0
142
0.0
142
0.020833
142
0.0
142
0.0
142
0.0
142
0.0
142
1.0
142
0.0
142
0.0
142
0.0
142
0.0
142
1.0
179
     0
144
0.020833
144
0.0
144
0.0
144
0.0
144
0.0
144
0.020833
144
0.0
144
0.0
144
0.0
144
0.0
144
1.0
144
0.0
144
0.0
144
0.0
144
0.0
144
1.0
147
0.020833
147
0.0
147
0.0
147
0.0
147
0.0
147
0.020833
147
0.0
147
0.0
147
0.0
147
0.0
147
1.0
147
0.0
147
0.0
147
0.0
147
0.0
147
1.0
  0
MLINESTYLE
  5
716FA
102
{ACAD_REACTORS
330
716E4
102
}
330
716E4
100
AcDbMlineStyle
  2
STANDARD
 70
     0
  3

 62
   256
 51
90.0
 52
90.0
 71
     2
 49
0.5
 62
   256
  6
BYLAYER
 49
-0.5
 62
   256
  6
BYLAYER
  0
ACDBPLACEHOLDER
  5
716B6
102
{ACAD_REACTORS
330
716B7
102
}
330
716B7
  0
SCALE
  5
716FF
102
{ACAD_REACTORS
330
716F7
102
}
330
716F7
100
AcDbScale
 70
     0
300
1:1
140
1.0
141
1.0
290
     1
  0
SCALE
  5
71700
102
{ACAD_REACTORS
330
716F7
102
}
330
716F7
100
AcDbScale
 70
     0
300
1:2
140
1.0
141
2.0
290
     0
  0
SCALE
  5
71701
102
{ACAD_REACTORS
330
716F7
102
}
330
716F7
100
AcDbScale
 70
     0
300
1:4
140
1.0
141
4.0
290
     0
  0
SCALE
  5
71702
102
{ACAD_REACTORS
330
716F7
102
}
330
716F7
100
AcDbScale
 70
     0
300
1:5
140
1.0
141
5.0
290
     0
  0
SCALE
  5
71703
102
{ACAD_REACTORS
330
716F7
102
}
330
716F7
100
AcDbScale
 70
     0
300
1:8
140
1.0
141
8.0
290
     0
  0
SCALE
  5
71704
102
{ACAD_REACTORS
330
716F7
102
}
330
716F7
100
AcDbScale
 70
     0
300
1:10
140
1.0
141
10.0
290
     0
  0
SCALE
  5
71705
102
{ACAD_REACTORS
330
716F7
102
}
330
716F7
100
AcDbScale
 70
     0
300
1:16
140
1.0
141
16.0
290
     0
  0
SCALE
  5
71706
102
{ACAD_REACTORS
330
716F7
102
}
330
716F7
100
AcDbScale
 70
     0
300
1:20
140
1.0
141
20.0
290
     0
  0
SCALE
  5
71707
102
{ACAD_REACTORS
330
716F7
102
}
330
716F7
100
AcDbScale
 70
     0
300
1:30
140
1.0
141
30.0
290
     0
  0
SCALE
  5
71708
102
{ACAD_REACTORS
330
716F7
102
}
330
716F7
100
AcDbScale
 70
     0
300
1:40
140
1.0
141
40.0
290
     0
  0
SCALE
  5
71709
102
{ACAD_REACTORS
330
716F7
102
}
330
716F7
100
AcDbScale
 70
     0
300
1:50
140
1.0
141
50.0
290
     0
  0
SCALE
  5
7170A
102
{ACAD_REACTORS
330
716F7
102
}
330
716F7
100
AcDbScale
 70
     0
300
1:100
140
1.0
141
100.0
290
     0
  0
SCALE
  5
7170B
102
{ACAD_REACTORS
330
716F7
102
}
330
716F7
100
AcDbScale
 70
     0
300
2:1
140
2.0
141
1.0
290
     0
  0
SCALE
  5
7170C
102
{ACAD_REACTORS
330
716F7
102
}
330
716F7
100
AcDbScale
 70
     0
300
4:1
140
4.0
141
1.0
290
     0
  0
SCALE
  5
7170D
102
{ACAD_REACTORS
330
716F7
102
}
330
716F7
100
AcDbScale
 70
     0
300
8:1
140
8.0
141
1.0
290
     0
  0
SCALE
  5
7170E
102
{ACAD_REACTORS
330
716F7
102
}
330
716F7
100
AcDbScale
 70
     0
300
10:1
140
10.0
141
1.0
290
     0
  0
SCALE
  5
7170F
102
{ACAD_REACTORS
330
716F7
102
}
330
716F7
100
AcDbScale
 70
     0
300
100:1
140
100.0
141
1.0
290
     0
  0
SCALE
  5
71710
102
{ACAD_REACTORS
330
716F7
102
}
330
716F7
100
AcDbScale
 70
     0
300
1/128" = 1'-0"
140
0.007813
141
12.0
290
     0
  0
SCALE
  5
71711
102
{ACAD_REACTORS
330
716F7
102
}
330
716F7
100
AcDbScale
 70
     0
300
1/64" = 1'-0"
140
0.015625
141
12.0
290
     0
  0
SCALE
  5
71712
102
{ACAD_REACTORS
330
716F7
102
}
330
716F7
100
AcDbScale
 70
     0
300
1/32" = 1'-0"
140
0.03125
141
12.0
290
     0
  0
SCALE
  5
71713
102
{ACAD_REACTORS
330
716F7
102
}
330
716F7
100
AcDbScale
 70
     0
300
1/16" = 1'-0"
140
0.0625
141
12.0
290
     0
  0
SCALE
  5
71714
102
{ACAD_REACTORS
330
716F7
102
}
330
716F7
100
AcDbScale
 70
     0
300
3/32" = 1'-0"
140
0.09375
141
12.0
290
     0
  0
SCALE
  5
71715
102
{ACAD_REACTORS
330
716F7
102
}
330
716F7
100
AcDbScale
 70
     0
300
1/8" = 1'-0"
140
0.125
141
12.0
290
     0
  0
SCALE
  5
71716
102
{ACAD_REACTORS
330
716F7
102
}
330
716F7
100
AcDbScale
 70
     0
300
3/16" = 1'-0"
140
0.1875
141
12.0
290
     0
  0
SCALE
  5
71717
102
{ACAD_REACTORS
330
716F7
102
}
330
716F7
100
AcDbScale
 70
     0
300
1/4" = 1'-0"
140
0.25
141
12.0
290
     0
  0
SCALE
  5
71718
102
{ACAD_REACTORS
330
716F7
102
}
330
716F7
100
AcDbScale
 70
     0
300
3/8" = 1'-0"
140
0.375
141
12.0
290
     0
  0
SCALE
  5
71719
102
{ACAD_REACTORS
330
716F7
102
}
330
716F7
100
AcDbScale
 70
     0
300
1/2" = 1'-0"
140
0.5
141
12.0
290
     0
  0
SCALE
  5
7171A
102
{ACAD_REACTORS
330
716F7
102
}
330
716F7
100
AcDbScale
 70
     0
300
3/4" = 1'-0"
140
0.75
141
12.0
290
     0
  0
SCALE
  5
7171B
102
{ACAD_REACTORS
330
716F7
102
}
330
716F7
100
AcDbScale
 70
     0
300
1" = 1'-0"
140
1.0
141
12.0
290
     0
  0
SCALE
  5
7171C
102
{ACAD_REACTORS
330
716F7
102
}
330
716F7
100
AcDbScale
 70
     0
300
1-1/2" = 1'-0"
140
1.5
141
12.0
290
     0
  0
SCALE
  5
7171D
102
{ACAD_REACTORS
330
716F7
102
}
330
716F7
100
AcDbScale
 70
     0
300
3" = 1'-0"
140
3.0
141
12.0
290
     0
  0
SCALE
  5
7171E
102
{ACAD_REACTORS
330
716F7
102
}
330
716F7
100
AcDbScale
 70
     0
300
6" = 1'-0"
140
6.0
141
12.0
290
     0
  0
SCALE
  5
7171F
102
{ACAD_REACTORS
330
716F7
102
}
330
716F7
100
AcDbScale
 70
     0
300
1'-0" = 1'-0"
140
12.0
141
12.0
290
     0
  0
TABLESTYLE
  5
716FB
102
{ACAD_XDICTIONARY
360
716FC
102
}
102
{ACAD_REACTORS
330
716F8
102
}
330
716F8
100
AcDbTableStyle
280
     0
  3
Standard
 70
     0
 71
     0
 40
0.06
 41
0.06
280
     0
281
     0
  7
Standard
140
0.18
170
     2
 62
     0
 63
     7
283
     0
 90
        4
 91
        0
  1

274
    -2
284
     1
 64
     0
275
    -2
285
     1
 65
     0
276
    -2
286
     1
 66
     0
277
    -2
287
     1
 67
     0
278
    -2
288
     1
 68
     0
279
    -2
289
     1
 69
     0
  7
Standard
140
0.25
170
     5
 62
     0
 63
     7
283
     0
 90
        4
 91
        0
  1

274
    -2
284
     1
 64
     0
275
    -2
285
     1
 65
     0
276
    -2
286
     1
 66
     0
277
    -2
287
     1
 67
     0
278
    -2
288
     1
 68
     0
279
    -2
289
     1
 69
     0
  7
Standard
140
0.18
170
     5
 62
     0
 63
     7
283
     0
 90
        4
 91
        0
  1

274
    -2
284
     1
 64
     0
275
    -2
285
     1
 65
     0
276
    -2
286
     1
 66
     0
277
    -2
287
     1
 67
     0
278
    -2
288
     1
 68
     0
279
    -2
289
     1
 69
     0
  0
VISUALSTYLE
  5
716DC
102
{ACAD_REACTORS
330
716DD
102
}
330
716DD
100
AcDbVisualStyle
  2
2dWireframe
 70
     4
177
     3
291
     0
 70
    58
 90
        0
176
     1
 90
        2
176
     1
 90
        0
176
     1
 90
        0
176
     1
 40
0.6
176
     1
 40
30.0
176
     1
 62
     7
420
 16777215
176
     1
 90
        1
176
     1
 90
        4
176
     1
 62
     7
176
     1
 62
   257
176
     1
 90
        1
176
     1
 90
        1
176
     1
 40
1.0
176
     1
 90
        0
176
     1
 62
   257
176
     1
 40
1.0
176
     1
 90
        1
176
     1
 90
        6
176
     1
 90
        2
176
     1
 62
     7
176
     1
 90
        5
176
     1
 90
        0
176
     1
 90
        0
176
     1
290
     0
176
     1
 90
        1
176
     1
 40
0.0
176
     1
 90
        0
176
     1
290
     1
176
     1
290
     1
176
     1
290
     0
176
     1
290
     0
176
     1
290
     0
176
     1
290
     0
176
     1
290
     0
176
     1
290
     0
176
     1
290
     0
176
     1
 90
       50
176
     1
 40
0.0
176
     1
 40
1.0
176
     1
 90
        0
176
     1
 62
    18
420
        0
176
     1
 90
       50
176
     1
 90
        3
176
     1
 62
     5
420
      255
176
     1
290
     0
176
     1
 90
       50
176
     1
 90
       50
176
     1
 90
       50
176
     1
290
     0
176
     1
 90
       50
176
     1
 62
   256
176
     0
 40
1.0
176
     0
 90
        2
176
     1
  1
strokes_ogs.tif
176
     1
290
     0
176
     1
 40
1.0
176
     1
 40
1.0
176
     1
  0
VISUALSTYLE
  5
716FD
102
{ACAD_REACTORS
330
716DD
102
}
330
716DD
100
AcDbVisualStyle
  2
Realistic
 70
     8
177
     3
291
     0
 70
    58
 90
        2
176
     1
 90
        2
176
     1
 90
        0
176
     1
 90
        0
176
     1
 40
0.6
176
     1
 40
30.0
176
     1
 62
     7
420
 16777215
176
     1
 90
        1
176
     1
 90
        0
176
     1
 62
     7
176
     1
 62
   257
176
     1
 90
        1
176
     1
 90
        1
176
     1
 40
1.0
176
     1
 90
        8
176
     1
 62
     8
420
  7895160
176
     1
 40
1.0
176
     1
 90
        1
176
     1
 90
        6
176
     1
 90
        2
176
     1
 62
     7
176
     1
 90
        5
176
     1
 90
        0
176
     1
 90
        0
176
     1
290
     0
176
     1
 90
       13
176
     1
 40
0.0
176
     1
 90
        0
176
     1
290
     0
176
     1
290
     1
176
     1
290
     1
176
     1
290
     0
176
     1
290
     0
176
     1
290
     0
176
     1
290
     0
176
     1
290
     0
176
     1
290
     0
176
     1
 90
       50
176
     1
 40
0.0
176
     1
 40
1.0
176
     1
 90
        0
176
     1
 62
    18
420
        0
176
     1
 90
       50
176
     1
 90
        3
176
     1
 62
     5
420
      255
176
     1
290
     0
176
     1
 90
       50
176
     1
 90
       50
176
     1
 90
       50
176
     1
290
     0
176
     1
 90
       50
176
     1
 62
   256
176
     0
 40
1.0
176
     0
 90
        2
176
     1
  1
strokes_ogs.tif
176
     1
290
     0
176
     1
 40
1.0
176
     1
 40
1.0
176
     1
  0
VISUALSTYLE
  5
716FE
102
{ACAD_REACTORS
330
716DD
102
}
330
716DD
100
AcDbVisualStyle
  2
Wireframe
 70
     5
177
     3
291
     0
 70
    58
 90
        0
176
     1
 90
        2
176
     1
 90
        0
176
     1
 90
        0
176
     1
 40
0.6
176
     1
 40
30.0
176
     1
 62
     7
420
 16777215
176
     1
 90
        1
176
     1
 90
        4
176
     1
 62
     7
176
     1
 62
   257
176
     1
 90
        1
176
     1
 90
        1
176
     1
 40
1.0
176
     1
 90
        0
176
     1
 62
   257
176
     1
 40
1.0
176
     1
 90
        1
176
     1
 90
        6
176
     1
 90
        2
176
     1
 62
     7
176
     1
 90
        3
176
     1
 90
        0
176
     1
 90
        0
176
     1
290
     0
176
     1
 90
        1
176
     1
 40
0.0
176
     1
 90
        0
176
     1
290
     0
176
     1
290
     1
176
     1
290
     1
176
     1
290
     0
176
     1
290
     0
176
     1
290
     0
176
     1
290
     0
176
     1
290
     0
176
     1
290
     0
176
     1
 90
       50
176
     1
 40
0.0
176
     1
 40
1.0
176
     1
 90
        0
176
     1
 62
    18
420
        0
176
     1
 90
       50
176
     1
 90
        3
176
     1
 62
     5
420
      255
176
     1
290
     0
176
     1
 90
       50
176
     1
 90
       50
176
     1
 90
       50
176
     1
290
     0
176
     1
 90
       50
176
     1
 62
   256
176
     0
 40
1.0
176
     0
 90
        2
176
     1
  1
strokes_ogs.tif
176
     1
290
     0
176
     1
 40
1.0
176
     1
 40
1.0
176
     1
  0
DICTIONARYVAR
  5
7193A
102
{ACAD_REACTORS
330
71934
102
}
330
71934
100
DictionaryVariables
280
     0
  1
1:1
  0
DICTIONARYVAR
  5
71936
102
{ACAD_REACTORS
330
71934
102
}
330
71934
100
DictionaryVariables
280
     0
  1
STANDARD
  0
DICTIONARYVAR
  5
71935
102
{ACAD_REACTORS
330
71934
102
}
330
71934
100
DictionaryVariables
280
     0
  1
STANDARD
  0
DICTIONARYVAR
  5
71937
102
{ACAD_REACTORS
330
71934
102
}
330
71934
100
DictionaryVariables
280
     0
  1

  0
DICTIONARYVAR
  5
71938
102
{ACAD_REACTORS
330
71934
102
}
330
71934
100
DictionaryVariables
280
     0
  1

  0
DICTIONARYVAR
  5
7193B
102
{ACAD_REACTORS
330
71934
102
}
330
71934
100
DictionaryVariables
280
     0
  1
1
  0
DICTIONARYVAR
  5
7193C
102
{ACAD_REACTORS
330
71934
102
}
330
71934
100
DictionaryVariables
280
     0
  1
15
  0
DICTIONARYVAR
  5
71939
102
{ACAD_REACTORS
330
71934
102
}
330
71934
100
DictionaryVariables
280
     0
  1
0
  0
DICTIONARY
  5
716CC
330
716CB
100
AcDbDictionary
280
     1
281
     1
  0
DICTIONARY
  5
716C6
330
716C4
100
AcDbDictionary
280
     1
281
     1
  0
DICTIONARY
  5
716EF
330
716EE
100
AcDbDictionary
280
     1
281
     1
  3
BUMPTILE
360
716F0
  3
DIFFUSETILE
360
716F1
  3
OPACITYTILE
360
716F2
  3
REFLECTIONTILE
360
716F3
  3
REFRACTIONTILE
360
716F4
  3
SPECULARTILE
360
716F5
  0
DICTIONARY
  5
716E7
330
716E6
100
AcDbDictionary
280
     1
281
     1
  3
BUMPTILE
360
716E8
  3
DIFFUSETILE
360
716E9
  3
OPACITYTILE
360
716EA
  3
REFLECTIONTILE
360
716EB
  3
REFRACTIONTILE
360
716EC
  3
SPECULARTILE
360
716ED
  0
DICTIONARY
  5
716BB
330
716B9
100
AcDbDictionary
280
     1
281
     1
  3
BUMPTILE
360
716BC
  3
DIFFUSETILE
360
716BD
  3
OPACITYTILE
360
716BE
  3
REFLECTIONTILE
360
716BF
  3
REFRACTIONTILE
360
716C0
  3
SPECULARTILE
360
716C1
  0
DICTIONARY
  5
716FC
330
716FB
100
AcDbDictionary
280
     1
281
     1
  3
ACAD_ROUNDTRIP_2008_TABLESTYLE_CELLSTYLEMAP
360
7193D
  0
XRECORD
  5
716F0
102
{ACAD_REACTORS
330
716EF
102
}
330
716EF
100
AcDbXrecord
280
     1
270
     1
271
     1
  0
XRECORD
  5
716F1
102
{ACAD_REACTORS
330
716EF
102
}
330
716EF
100
AcDbXrecord
280
     1
270
     1
271
     1
  0
XRECORD
  5
716F2
102
{ACAD_REACTORS
330
716EF
102
}
330
716EF
100
AcDbXrecord
280
     1
270
     1
271
     1
  0
XRECORD
  5
716F3
102
{ACAD_REACTORS
330
716EF
102
}
330
716EF
100
AcDbXrecord
280
     1
270
     1
271
     1
  0
XRECORD
  5
716F4
102
{ACAD_REACTORS
330
716EF
102
}
330
716EF
100
AcDbXrecord
280
     1
270
     1
271
     1
  0
XRECORD
  5
716F5
102
{ACAD_REACTORS
330
716EF
102
}
330
716EF
100
AcDbXrecord
280
     1
270
     1
271
     1
  0
XRECORD
  5
716E8
102
{ACAD_REACTORS
330
716E7
102
}
330
716E7
100
AcDbXrecord
280
     1
270
     1
271
     1
  0
XRECORD
  5
716E9
102
{ACAD_REACTORS
330
716E7
102
}
330
716E7
100
AcDbXrecord
280
     1
270
     1
271
     1
  0
XRECORD
  5
716EA
102
{ACAD_REACTORS
330
716E7
102
}
330
716E7
100
AcDbXrecord
280
     1
270
     1
271
     1
  0
XRECORD
  5
716EB
102
{ACAD_REACTORS
330
716E7
102
}
330
716E7
100
AcDbXrecord
280
     1
270
     1
271
     1
  0
XRECORD
  5
716EC
102
{ACAD_REACTORS
330
716E7
102
}
330
716E7
100
AcDbXrecord
280
     1
270
     1
271
     1
  0
XRECORD
  5
716ED
102
{ACAD_REACTORS
330
716E7
102
}
330
716E7
100
AcDbXrecord
280
     1
270
     1
271
     1
  0
XRECORD
  5
716BC
102
{ACAD_REACTORS
330
716BB
102
}
330
716BB
100
AcDbXrecord
280
     1
270
     1
271
     1
  0
XRECORD
  5
716BD
102
{ACAD_REACTORS
330
716BB
102
}
330
716BB
100
AcDbXrecord
280
     1
270
     1
271
     1
  0
XRECORD
  5
716BE
102
{ACAD_REACTORS
330
716BB
102
}
330
716BB
100
AcDbXrecord
280
     1
270
     1
271
     1
  0
XRECORD
  5
716BF
102
{ACAD_REACTORS
330
716BB
102
}
330
716BB
100
AcDbXrecord
280
     1
270
     1
271
     1
  0
XRECORD
  5
716C0
102
{ACAD_REACTORS
330
716BB
102
}
330
716BB
100
AcDbXrecord
280
     1
270
     1
271
     1
  0
XRECORD
  5
716C1
102
{ACAD_REACTORS
330
716BB
102
}
330
716BB
100
AcDbXrecord
280
     1
270
     1
271
     1
  0
CELLSTYLEMAP
  5
7193D
102
{ACAD_REACTORS
330
716FC
102
}
330
716FC
100
AcDbCellStyleMap
 90
        3
300
CELLSTYLE
  1
TABLEFORMAT_BEGIN
 90
        5
170
     1
 91
        0
 92
    32768
 62
   257
 93
        1
300
CONTENTFORMAT
  1
CONTENTFORMAT_BEGIN
 90
        0
 91
        0
 92
        4
 93
        0
300

 40
0.0
140
1.0
 94
        5
 62
     0
340
716D3
144
0.25
309
CONTENTFORMAT_END
171
     0
 94
        6
 95
        1
302
GRIDFORMAT
  1
GRIDFORMAT_BEGIN
 90
        0
 91
        1
 62
     0
 92
       -2
340
0
 93
        0
 40
0.045
309
GRIDFORMAT_END
 95
        2
302
GRIDFORMAT
  1
GRIDFORMAT_BEGIN
 90
        0
 91
        1
 62
     0
 92
       -2
340
0
 93
        0
 40
0.045
309
GRIDFORMAT_END
 95
        4
302
GRIDFORMAT
  1
GRIDFORMAT_BEGIN
 90
        0
 91
        1
 62
     0
 92
       -2
340
0
 93
        0
 40
0.045
309
GRIDFORMAT_END
 95
        8
302
GRIDFORMAT
  1
GRIDFORMAT_BEGIN
 90
        0
 91
        1
 62
     0
 92
       -2
340
0
 93
        0
 40
0.045
309
GRIDFORMAT_END
 95
       16
302
GRIDFORMAT
  1
GRIDFORMAT_BEGIN
 90
        0
 91
        1
 62
     0
 92
       -2
340
0
 93
        0
 40
0.045
309
GRIDFORMAT_END
 95
       32
302
GRIDFORMAT
  1
GRIDFORMAT_BEGIN
 90
        0
 91
        1
 62
     0
 92
       -2
340
0
 93
        0
 40
0.045
309
GRIDFORMAT_END
309
TABLEFORMAT_END
  1
CELLSTYLE_BEGIN
 90
        1
 91
        1
300
_TITLE
309
CELLSTYLE_END
300
CELLSTYLE
  1
TABLEFORMAT_BEGIN
 90
        5
170
     1
 91
        0
 92
        0
 62
   257
 93
        1
300
CONTENTFORMAT
  1
CONTENTFORMAT_BEGIN
 90
        0
 91
        0
 92
        4
 93
        0
300

 40
0.0
140
1.0
 94
        5
 62
     0
340
716D3
144
0.18
309
CONTENTFORMAT_END
171
     0
 94
        6
 95
        1
302
GRIDFORMAT
  1
GRIDFORMAT_BEGIN
 90
        0
 91
        1
 62
     0
 92
       -2
340
0
 93
        0
 40
0.045
309
GRIDFORMAT_END
 95
        2
302
GRIDFORMAT
  1
GRIDFORMAT_BEGIN
 90
        0
 91
        1
 62
     0
 92
       -2
340
0
 93
        0
 40
0.045
309
GRIDFORMAT_END
 95
        4
302
GRIDFORMAT
  1
GRIDFORMAT_BEGIN
 90
        0
 91
        1
 62
     0
 92
       -2
340
0
 93
        0
 40
0.045
309
GRIDFORMAT_END
 95
        8
302
GRIDFORMAT
  1
GRIDFORMAT_BEGIN
 90
        0
 91
        1
 62
     0
 92
       -2
340
0
 93
        0
 40
0.045
309
GRIDFORMAT_END
 95
       16
302
GRIDFORMAT
  1
GRIDFORMAT_BEGIN
 90
        0
 91
        1
 62
     0
 92
       -2
340
0
 93
        0
 40
0.045
309
GRIDFORMAT_END
 95
       32
302
GRIDFORMAT
  1
GRIDFORMAT_BEGIN
 90
        0
 91
        1
 62
     0
 92
       -2
340
0
 93
        0
 40
0.045
309
GRIDFORMAT_END
309
TABLEFORMAT_END
  1
CELLSTYLE_BEGIN
 90
        2
 91
        1
300
_HEADER
309
CELLSTYLE_END
300
CELLSTYLE
  1
TABLEFORMAT_BEGIN
 90
        5
170
     1
 91
        0
 92
        0
 62
   257
 93
        1
300
CONTENTFORMAT
  1
CONTENTFORMAT_BEGIN
 90
        0
 91
        0
 92
        4
 93
        0
300

 40
0.0
140
1.0
 94
        2
 62
     0
340
716D3
144
0.18
309
CONTENTFORMAT_END
171
     0
 94
        6
 95
        1
302
GRIDFORMAT
  1
GRIDFORMAT_BEGIN
 90
        0
 91
        1
 62
     0
 92
       -2
340
0
 93
        0
 40
0.045
309
GRIDFORMAT_END
 95
        2
302
GRIDFORMAT
  1
GRIDFORMAT_BEGIN
 90
        0
 91
        1
 62
     0
 92
       -2
340
0
 93
        0
 40
0.045
309
GRIDFORMAT_END
 95
        4
302
GRIDFORMAT
  1
GRIDFORMAT_BEGIN
 90
        0
 91
        1
 62
     0
 92
       -2
340
0
 93
        0
 40
0.045
309
GRIDFORMAT_END
 95
        8
302
GRIDFORMAT
  1
GRIDFORMAT_BEGIN
 90
        0
 91
        1
 62
     0
 92
       -2
340
0
 93
        0
 40
0.045
309
GRIDFORMAT_END
 95
       16
302
GRIDFORMAT
  1
GRIDFORMAT_BEGIN
 90
        0
 91
        1
 62
     0
 92
       -2
340
0
 93
        0
 40
0.045
309
GRIDFORMAT_END
 95
       32
302
GRIDFORMAT
  1
GRIDFORMAT_BEGIN
 90
        0
 91
        1
 62
     0
 92
       -2
340
0
 93
        0
 40
0.045
309
GRIDFORMAT_END
309
TABLEFORMAT_END
  1
CELLSTYLE_BEGIN
 90
        3
 91
        2
300
_DATA
309
CELLSTYLE_END
  0
ENDSEC
  0
SECTION
  2
ACDSDATA
 70
     2
 71
     6
  0
ACDSSCHEMA
 90
        0
  1
AcDb3DSolid_ASM_Data
  2
AcDbDs::ID
280
    10
 91
        8
  2
ASM_Data
280
    15
 91
        0
101
ACDSRECORD
 95
        0
 90
        2
  2
AcDbDs::TreatedAsObjectData
280
     1
291
     1
101
ACDSRECORD
 95
        0
 90
        3
  2
AcDbDs::Legacy
280
     1
291
     1
101
ACDSRECORD
  1
AcDbDs::ID
 90
        4
  2
AcDs:Indexable
280
     1
291
     1
101
ACDSRECORD
  1
AcDbDs::ID
 90
        5
  2
AcDbDs::HandleAttribute
280
     7
282
     1
  0
ACDSSCHEMA
 90
        1
  1
AcDb_Thumbnail_Schema
  2
AcDbDs::ID
280
    10
 91
        8
  2
Thumbnail_Data
280
    15
 91
        0
101
ACDSRECORD
 95
        1
 90
        2
  2
AcDbDs::TreatedAsObjectData
280
     1
291
     1
101
ACDSRECORD
 95
        1
 90
        3
  2
AcDbDs::Legacy
280
     1
291
     1
101
ACDSRECORD
  1
AcDbDs::ID
 90
        4
  2
AcDs:Indexable
280
     1
291
     1
101
ACDSRECORD
  1
AcDbDs::ID
 90
        5
  2
AcDbDs::HandleAttribute
280
     7
282
     1
  0
ACDSSCHEMA
 90
        2
  1
AcDbDs::TreatedAsObjectDataSchema
  2
AcDbDs::TreatedAsObjectData
280
     1
 91
        0
  0
ACDSSCHEMA
 90
        3
  1
AcDbDs::LegacySchema
  2
AcDbDs::Legacy
280
     1
 91
        0
  0
ACDSSCHEMA
 90
        4
  1
AcDbDs::IndexedPropertySchema
  2
AcDs:Indexable
280
     1
 91
        0
  0
ACDSSCHEMA
 90
        5
  1
AcDbDs::HandleAttributeSchema
  2
AcDbDs::HandleAttribute
280
     7
 91
        1
284
     1
  0
ACDSRECORD
 90
        0
  2
AcDbDs::ID
280
    10
320
716A1
  2
ASM_Data
280
    15
 94
     2086
310
414349532042696E61727946696C652855000000000000020000000C00000007104175746F6465736B204175746F434144071341534D203231392E302E302E35363030204E540718576564205365702031302031363A30383A31312032303134066666666666663940068DEDB5A0F7C6B03E06BBBDD7D9DF7CDB3D0D096173
310
6D6865616465720CFFFFFFFF04FFFFFFFF070C3231392E302E302E35363030110D04626F64790CFFFFFFFF04FFFFFFFF0CFFFFFFFF0C020000000CFFFFFFFF0CFFFFFFFF110D046C756D700CFFFFFFFF04FFFFFFFF0CFFFFFFFF0CFFFFFFFF0C030000000C01000000110D057368656C6C0CFFFFFFFF04FFFFFFFF0CFFFFFF
310
FF0CFFFFFFFF0CFFFFFFFF0C040000000CFFFFFFFF0C02000000110D04666163650C0500000004FFFFFFFF0CFFFFFFFF0C060000000C070000000C030000000CFFFFFFFF0C080000000B0B110E0D737472696E675F6174747269620E0B6E616D655F6174747269620E0367656E0D066174747269620CFFFFFFFF04FFFFFFFF
310
0CFFFFFFFF0CFFFFFFFF0C040000001502000000150100000015010000001502000000070F4154545249425F58414349535F49440703333630110D04666163650C0900000004FFFFFFFF0CFFFFFFFF0C0A0000000C0B0000000C030000000CFFFFFFFF0C0C0000000B0B110D046C6F6F700CFFFFFFFF04FFFFFFFF0CFFFFFF
310
FF0C0D0000000C0E0000000C04000000110E04636F6E650D07737572666163650CFFFFFFFF04FFFFFFFF0CFFFFFFFF13A9C64B25D858283F3195F62CE1461C402506F1D24D62403F140000000000000000000000000000F03F0000000000000000140000000000000000000000000000000064E5D022DBF9CEBF0600000000
310
0000F03F0B0B06000000000000008006000000000000F03F065FE5D022DBF9CE3F0B0B0B0B0B110E0D737472696E675F6174747269620E0B6E616D655F6174747269620E0367656E0D066174747269620CFFFFFFFF04FFFFFFFF0CFFFFFFFF0CFFFFFFFF0C060000001502000000150100000015010000001502000000070F
310
4154545249425F58414349535F49440703333538110D04666163650C0F00000004FFFFFFFF0CFFFFFFFF0CFFFFFFFF0C100000000C030000000CFFFFFFFF0C110000000A0B110D046C6F6F700CFFFFFFFF04FFFFFFFF0CFFFFFFFF0CFFFFFFFF0C120000000C06000000110E05706C616E650D07737572666163650CFFFFFF
310
FF04FFFFFFFF0CFFFFFFFF13A9C64B25D858283FCD5C10CFC5461CC02506F1D24D62403F140000000000000000000000000000F0BF0000000000000000149626A5A0F7C6B040000000000000000000000000000000000B0B0B0B0B110D046C6F6F700CFFFFFFFF04FFFFFFFF0CFFFFFFFF0CFFFFFFFF0C130000000C040000
310
00110D06636F656467650CFFFFFFFF04FFFFFFFF0CFFFFFFFF0C0E0000000C0E0000000C140000000C150000000B0C0700000004000000000CFFFFFFFF110E0D737472696E675F6174747269620E0B6E616D655F6174747269620E0367656E0D066174747269620CFFFFFFFF04FFFFFFFF0CFFFFFFFF0CFFFFFFFF0C0A0000
310
001502000000150100000015010000001502000000070F4154545249425F58414349535F49440703333539110D046C6F6F700CFFFFFFFF04FFFFFFFF0CFFFFFFFF0CFFFFFFFF0C140000000C0A000000110E05706C616E650D07737572666163650CFFFFFFFF04FFFFFFFF0CFFFFFFFF13A9C64B25D858283F3195F62CE146
310
1C402506F1D24D62403F140000000000000000000000000000F0BF0000000000000000149626A5A0F7C6B040000000000000000000000000000000000B0B0B0B0B110D06636F656467650CFFFFFFFF04FFFFFFFF0CFFFFFFFF0C120000000C120000000C130000000C160000000B0C0B00000004000000000CFFFFFFFF110D
310
06636F656467650CFFFFFFFF04FFFFFFFF0CFFFFFFFF0C130000000C130000000C120000000C160000000A0C0D00000004000000000CFFFFFFFF110D06636F656467650CFFFFFFFF04FFFFFFFF0CFFFFFFFF0C140000000C140000000C0E0000000C150000000A0C1000000004000000000CFFFFFFFF110D04656467650CFF
310
FFFFFF04FFFFFFFF0CFFFFFFFF0C170000000600000000000000000C1700000006182D4454FB2119400C0E0000000C180000000B0707756E6B6E6F776E110D04656467650CFFFFFFFF04FFFFFFFF0CFFFFFFFF0C190000000600000000000000000C1900000006182D4454FB2119400C120000000C1A0000000B0707756E6B
310
6E6F776E110D067665727465780CFFFFFFFF04FFFFFFFF0CFFFFFFFF0C1500000004020000000C1B000000110E07656C6C697073650D0563757276650CFFFFFFFF04FFFFFFFF0CFFFFFFFF13A9C64B25D858283F3195F62CE1461C402506F1D24D62403F140000000000000000000000000000F0BF00000000000000001464
310
E5D022DBF9CE3F0000000000000000000000000000000006000000000000F03F0B0B110D067665727465780CFFFFFFFF04FFFFFFFF0CFFFFFFFF0C1600000004020000000C1C000000110E07656C6C697073650D0563757276650CFFFFFFFF04FFFFFFFF0CFFFFFFFF13A9C64B25D858283FCD5C10CFC5461CC02506F1D24D
310
62403F140000000000000000000000000000F0BF00000000000000001464E5D022DBF9CE3F0000000000000000000000000000000006000000000000F03F0B0B110D05706F696E740CFFFFFFFF04FFFFFFFF0CFFFFFFFF135638DA58F1FFCE3F3195F62CE1461C402506F1D24D62403F110D05706F696E740CFFFFFFFF04FF
310
FFFFFF0CFFFFFFFF135638DA58F1FFCE3FCD5C10CFC5461CC02506F1D24D62403F110E03456E640E026F660E0341534D0D0464617461
  0
ACDSRECORD
 90
        1
  2
AcDbDs::ID
280
    10
320
716CB
  2
Thumbnail_Data
280
    15
 94
     1183
310
89504E470D0A1A0A0000000D4948445200000100000000C508030000008CFEDCE700000300504C5445FFFFFF000000FFFFFF0000000000000000000000000000000000000000000000000000330000660000990000CC0000FF0033000033330033660033990033CC0033FF0066000066330066660066990066CC0066FF0099
310
000099330099660099990099CC0099FF00CC0000CC3300CC6600CC9900CCCC00CCFF00FF0000FF3300FF6600FF9900FFCC00FFFF3300003300333300663300993300CC3300FF3333003333333333663333993333CC3333FF3366003366333366663366993366CC3366FF3399003399333399663399993399CC3399FF33CC00
310
33CC3333CC6633CC9933CCCC33CCFF33FF0033FF3333FF6633FF9933FFCC33FFFF6600006600336600666600996600CC6600FF6633006633336633666633996633CC6633FF6666006666336666666666996666CC6666FF6699006699336699666699996699CC6699FF66CC0066CC3366CC6666CC9966CCCC66CCFF66FF0066
310
FF3366FF6666FF9966FFCC66FFFF9900009900339900669900999900CC9900FF9933009933339933669933999933CC9933FF9966009966339966669966999966CC9966FF9999009999339999669999999999CC9999FF99CC0099CC3399CC6699CC9999CCCC99CCFF99FF0099FF3399FF6699FF9999FFCC99FFFFCC0000CC00
310
33CC0066CC0099CC00CCCC00FFCC3300CC3333CC3366CC3399CC33CCCC33FFCC6600CC6633CC6666CC6699CC66CCCC66FFCC9900CC9933CC9966CC9999CC99CCCC99FFCCCC00CCCC33CCCC66CCCC99CCCCCCCCCCFFCCFF00CCFF33CCFF66CCFF99CCFFCCCCFFFFFF0000FF0033FF0066FF0099FF00CCFF00FFFF3300FF3333
310
FF3366FF3399FF33CCFF33FFFF6600FF6633FF6666FF6699FF66CCFF66FFFF9900FF9933FF9966FF9999FF99CCFF99FFFFCC00FFCC33FFCC66FFCC99FFCCCCFFCCFFFFFF00FFFF33FFFF66FFFF99FFFFCCFFFFFF0000000D0D0D1A1A1A2828283535354343435050505D5D5D6B6B6B787878868686939393A1A1A1AEAEAEBB
310
BBBBC9C9C9D6D6D6E4E4E4F1F1F1FFFFFF000000000000000000000000000000000000000000000000000000000000790CAC0F0000015A4944415478DAEDD8410A8340100440FFFFCCF9C09EE61E104224896014844D579F64F420A587DE592A3A632CD5C101100F500500C0F36ACDF6D636BFCEEBAEF9E9177D0788FBF600
310
000000000000004D1000000000000000100F50FB4F4C9E8B5578FAFF0300000000000000000000000000000000B00BD069000D0000000000000000A009020000000000000000000000000000000052013A0DA001000000000000000000A8C2000000000000000000000000000000402A40FC420400000000000000002016C0
310
5900000000000000000000000000000000C803885F88000000000000000000C402380B0000000000000000000000000000000000E2003A0DA0010000000000000000344100000000000000000000000000000000C0E7C660F21C04080D0000000000000000C01F54DE73151900000000000000D0AFCDCFB6227CDDAB1C9CD7
310
5DF3D32FAA0902000000C00A109E658C110DF0000E6CC6FBCCF8EC2E0000000049454E44AE426082
  0
ACDSRECORD
 90
        1
  2
AcDbDs::ID
280
    10
320
716C4
  2
Thumbnail_Data
280
    15
 94
     1017
310
89504E470D0A1A0A0000000D4948445200000100000000890803000000F46416F000000300504C5445FEFCF0000000FFFFFF0000000000000000000000000000000000000000000000000000330000660000990000CC0000FF0033000033330033660033990033CC0033FF0066000066330066660066990066CC0066FF0099
310
000099330099660099990099CC0099FF00CC0000CC3300CC6600CC9900CCCC00CCFF00FF0000FF3300FF6600FF9900FFCC00FFFF3300003300333300663300993300CC3300FF3333003333333333663333993333CC3333FF3366003366333366663366993366CC3366FF3399003399333399663399993399CC3399FF33CC00
310
33CC3333CC6633CC9933CCCC33CCFF33FF0033FF3333FF6633FF9933FFCC33FFFF6600006600336600666600996600CC6600FF6633006633336633666633996633CC6633FF6666006666336666666666996666CC6666FF6699006699336699666699996699CC6699FF66CC0066CC3366CC6666CC9966CCCC66CCFF66FF0066
310
FF3366FF6666FF9966FFCC66FFFF9900009900339900669900999900CC9900FF9933009933339933669933999933CC9933FF9966009966339966669966999966CC9966FF9999009999339999669999999999CC9999FF99CC0099CC3399CC6699CC9999CCCC99CCFF99FF0099FF3399FF6699FF9999FFCC99FFFFCC0000CC00
310
33CC0066CC0099CC00CCCC00FFCC3300CC3333CC3366CC3399CC33CCCC33FFCC6600CC6633CC6666CC6699CC66CCCC66FFCC9900CC9933CC9966CC9999CC99CCCC99FFCCCC00CCCC33CCCC66CCCC99CCCCCCCCCCFFCCFF00CCFF33CCFF66CCFF99CCFFCCCCFFFFFF0000FF0033FF0066FF0099FF00CCFF00FFFF3300FF3333
310
FF3366FF3399FF33CCFF33FFFF6600FF6633FF6666FF6699FF66CCFF66FFFF9900FF9933FF9966FF9999FF99CCFF99FFFFCC00FFCC33FFCC66FFCC99FFCCCCFFCCFFFFFF00FFFF33FFFF66FFFF99FFFFCCFFFFFF0000000D0D0D1A1A1A2828283535354343435050505D5D5D6B6B6B787878868686939393A1A1A1AEAEAEBB
310
BBBBC9C9C9D6D6D6E4E4E4F1F1F1FFFFFF0000000000000000000000000000000000000000000000000000000000007C77BAA7000000B44944415478DAEDD0310100000C0220FBB7B48931760C22903E1701020408102040800001020408102040800001020408102040800001020408102040800001020408102040800001
310
020408102040800001020408102040800001020408102040800001020408102040800001020408102040800001020408102040800001020408102040800001020408102040800001020408102040800001020408102040800001020408102040800001020408102040C099016B33700943E05F3C0000000049454E44AE4260
310
82
  0
ENDSEC
  0
EOF
